New Dark Ages

Bad Religion

Composição de: Brett Gurewitz / Greg Graffin
tom: F
INTRO 
E|--------------------------------------------------------------------|
B|-------------------------------------13-11-10------13-11-10---------|
G|--------------------------------------------------------------------|
D|---7-9-10---7-9-10----9-10----9-10---------------------------7------|
A|--------------------8-------8---------------------------------------|
E|--------------------------------------------------------------------|

VERSE x 2
E|---------------------------------------------------------------------------|
B|---------------------------------------------------------------------------|
G|-7-------------------------------------------------------------------------|
D|-7-------------------------8-8-----------------------3-3-------------------|
A|-5-5-5-5-5-5-5-5-5-5-5-5-5-8-8-----------------------3-3-------------------|
E|---------------------------6-6-6-6-6-6-6-6-6-6-6-6---1-1-1-1-1-1-1-1-1-1-1-|

verse cont.
E|-----------------------------------------------------------------|
B|-----------------------------------------------------------------|
G|-----------------------------------------------------------------|
D|--7-7-7-7-7-7-7-7-7-7-7-7-7--------------------------------------|
A|--7-7-7-7-7-7-7-7-7-7-7-7-7--------------------------------------|
E|--5-5-5-5-5-5-5-5-5-5-5-5-5--------------------------------------|

CHORUS X2
   
E|--------------------------------------------------------|
B|--------------------------------------------------------|
G|--777777777777777---------------------------------------|
D|--777777777777777-333333--55555555-3333-5555------------|
A|--555555555555555-333333--55555555-1111-3333------------|
E|------------------111111--33333333----------------------|

INTRO

VERSE

CHORUS

BRIDGE
E|------------------------------------------------------------------|
B|--6--------5------------5-----------------------------------------|
G|--7--------5--------4---5--------33333333-55555555----------------|
D|--7--------5--------5---5--------33333333-55555555----------------|
A|--5--------3--------5---3--------11111111-33333333----------------|
E|--------------------3---------------------------------------------|
Página 1 / 1

Letras e título
Acordes e artista

resetar configurações
OK