Cifra Club

New Dark Ages

Bad Religion

Tab de baixo: Principal
                            NEW DARK AGES (Bassline)
                     (From the 2007 Album NEW MAPS OF HELL)

Transcribed by Spidey255

Gtr I (E A D G) - 'Untitled'

 Intro
  Q=150
 4/4
  Gtr I
  E E +S  S E E E E E   E E +S  S E E E E E
|---------------------|---------------------|
|---------------------|---------------------|
|-5-5-(5)-5-5-5-5-5-5-|-5-5-(5)-5-5-5-5-5-5S|
|---------------------|---------------------|


  E E +S  S E E E E E   E E +S  S E E E E E
|---------------------|----------------------|
|---------------------|----------------------|
|-1-1-(1)-1-1-1-1-1-1-|-1-1-(1)-1-1-1-1-1-1--|
|---------------------|----------------------|


  E E +S  S E E E E E   E E +S  S E E E E E
|---------------------|---------------------|
|---------------------|---------------------|
|---------------------|---------------------|
|-1-1-(1)-1-1-1-1-1-1-|-1-1-(1)-1-1-1-1-1-1S|


                                   To Coda
  E E +S  S E E E E E   E E +S  S E E E E E
|---------------------|---------------------|
|---------------------|---------------------|
|---------------------|---------------------|
|-5-5-(5)-5-5-5-5-5-5-|-5-5-(5)-5-5-5-5-5-5-|


 Verse
  E S S S S S S S S S S S S S S   S S S S S S S S S S S S S S S S
|-------------------------------|---------------------------------|
|-------------------------------|---------------------------------|
|-5-5-5-5-5-5-5-5-5-5-5-5-5-5-5-|-5-5-5-5-5-5-5-5-5-5-5-5-5-5-5-5-|
|-------------------------------|---------------------------------|


  E S S S S S S S S S S S S S S   S S S S S S S S E S S E S S
|-------------------------------|------------------------------|
|-------------------------------|------------------------------|
|-1-1-1-1-1-1-1-1-1-1-1-1-1-1-1-|-1-1-1-1-1-1-1-1-1-1-1-1-1-1--|
|-------------------------------|------------------------------|


  $
  E S S S S S S S S S S S S S S   E S S S S S S S S S S S S S S
|-------------------------------|-------------------------------|
|-------------------------------|-------------------------------|
|-------------------------------|-------------------------------|
|-1-1-1-1-1-1-1-1-1-1-1-1-1-1-1-|-1-1-1-1-1-1-1-1-1-1-1-1-1-1-1-|


  E S S S S E E S S S S E   E S S S S E E E E E
|-------------------------|------------------------|
|-------------------------|------------------------|
|-------------------------|-------------------3----|
|-5-5-5-5-5-5-5-5-5-5-5-5-|-5-5-5-5-5-5-5-3-5------|


 Pre-Chorus
  E E +S  S E E E E E   E E +S  S E E E E E
|---------------------|---------------------|
|---------------------|---------------------|
|-5-5-(5)-5-5-5-5-5-5-|-5-5-(5)-5-5-5-5-5-5S|
|---------------------|---------------------|


  E E +S  S E E E E E   E E +S  S E E E E E
|---------------------|---------------------|
|---------------------|---------------------|
|-1-1-(1)-1-1-1-1-1-1-|-1-1-(1)-1-1-1-0-1-3-|
|---------------------|---------------------|


  E E +S  S E E E E E   E E +S  S E E E E E
|---------------------|---------------------|
|---------------------|---------------------|
|---------------------|---------------------|
|-1-1-(1)-1-1-1-1-1-1-|-1-1-(1)-1-1-1-1-1-1S|


  E E +S  S E E E E E   E E +S  S E E E  Q
|---------------------|----------------------|
|---------------------|----------------------|
|---------------------|----------------------|
|-5-5-(5)-5-5-5-5-5-5-|-5-5-(5)-5-5-5-5s17\--|


  S S S S S S S S S S S S S S S S   S S S S S S S S S S S S  Q
|---------------------------------|------------------------------|
|---------------------------------|------------------------------|
|-0-0-0-0-0-0-0-0-0-0-0-0-0-0-0-0-|-0-0-0-0-0-0-0-0-0-0-0-0s12\--|
|---------------------------------|------------------------------|


   Chorus
    E E +S  S E E E E E   E E +S  S E E E E E
||----------------------|---------------------|
||o---------------------|---------------------|
||o-5-5-(5)-5-5-5-5-5-5-|---------------------|
||----------------------|-1-1-(1)-1-1-1-1-1-1-|


                          D.C. al Coda
                          D.C. al Coda
  E E +S  S E E E E E   E E E E E E E E
|---------------------|------------------||
|---------------------|-----------------o||
|-3-3-(3)-3-3-3-3-3-3-|-----------------o||
|---------------------|-3-3-3-3-5-5-5-5--||


 Verse
  &
  E S S S S S S S S S S S S S S   E E S S S S S S S S S S S S
|-------------------------------|-----------------------------|
|-------------------------------|-----------------------------|
|-5-5-5-5-5-5-5-5-5-5-5-5-5-5-5-|-5-5-5-5-5-5-5-5-5-5-5-5-5-5-|
|-------------------------------|-----------------------------|


                                     D.S. al Dbl. Coda
  E E S S S S S S S S S S S S   E E S S S S E E S S S S
|-----------------------------|--------------------------|
|-----------------------------|--------------------------|
|-1-1-1-1-1-1-1-1-1-1-1-1-1-1-|-1-1-1-1-1-1-1-1-1-1-1-1--|
|-----------------------------|--------------------------|


 Bridge
  &&
    E  E  S  S  E  E  E  S  S  E    E  E  S  S S  S  E E  E E
|--------------------------------|----------------------------|
|--------------------------------|----------------------------|
|-/10-10-10-10-10-10-10-10-10-10-|-10-10-10-10-8s10-10-8------|
|--------------------------------|-----------------------10-8-|


  E E S S E E E S S E   E E S S S S E E E E
|---------------------|----------------------|
|---------------------|----------------------|
|-8-8-8-8-8-8-8-8-8-8-|-8-8-8-8-6s8-8-6------|
|---------------------|-----------------5-6--|


  E E S S E E E S S E   E E S S E E E E E
|---------------------|-------------------|
|---------------------|-------------------|
|---------------------|-------------------|
|-8-8-8-8-8-8-8-8-8-8-|-8-8-8-8-8-8-5-6-8-|


  E E S S E E E S S E   E S S S S S S S S S S S S S S
|---------------------|-------------------------------|
|---------------------|-------------------------------|
|---------------------|-------------------------------|
|-3-3-3-3-3-3-3-3-3-3-|-3-3-3-3-3-3-3-3-3-3-3-3-3-3-3-|


  E E S S E E E S S E   E E S S E E E E E
|---------------------|-------------------|
|---------------------|-------------------|
|---------------------|---------------0-1-|
|-1-1-1-1-1-1-1-1-1-1-|-1-1-1-1-1-1-3-----|


  E E S S E E E S S E   E E S S E E E E E
|---------------------|-------------------|
|---------------------|-------------------|
|-3-3-3-3-3-3-3-3-3-3-|-3-3-3-3-3-3-------|
|---------------------|-------------0-1-2-|


  E E S S E E E S S E   E E S S E E E S S E
|---------------------|---------------------|
|---------------------|---------------------|
|---------------------|---------------------|
|-3-3-3-3-3-3-3-3-3-3-|-3-3-3-3-3-3-3-3-3-3-|


  e e e e e e e E   S S S S S S S E S S S S S E
|-----------------|---------------------5---------|
|-----------------|---3-5-7-5-------------7-5-----|
|-3-3-3-3-3-3-3-3-|-3---------8-7-5-8-5-------8---|
|-----------------|-------------------------------|


   Out-Chorus
    E S S S S E E S S S S E   E S S S S E E S S Q
||--------------------------|----------------------|
||o-------------------------|----------------------|
||o-5-5-5-5-5-5-5-5-5-5-5-5-|-5-5-5-5-5-5-5-5-5-3--|
||--------------------------|----------------------|


  E E +S  S E E E E E   E E +S  S E E E E E
|---------------------|-----------------------|
|---------------------|-----------------------|
|-1-1-(1)-1-1-1-1-1-1-|-1-1-(1)-1-1-1-0-1-3---|
|---------------------|-----------------------|


  E S S S S S S E S S S S S S
|-----------------------------|
|-----------------------------|
|-----------------------------|
|-1-1-1-1-1-1-1-1-1-1-1-1-1-1-|


  E S S S S S S E E E E   E S S S S E E S S S S E
|-----------------------|-------------------------|
|-----------------------|-------------------------|
|-------------------0-1-|-3-3-3-3-3-3-3-3-3-3-3-3-|
|-1-1-1-1-1-1-1-1-3-----|-------------------------|


  S S S S S S S S S S S S S S S S     W          +W
|----------------------------------||----------|--------*|
|---------------------------------o||----------|--------*|
|-0-0-0-0-0-0-0-0-0-0-0-0-0-0-0-0-o||-5--------|-(5)----*|
|----------------------------------||----------|--------*|


Duration Legend
---------------
+ - note tied to previous; . - note dotted; .. - note double dotted
Uncapitalized letters represent notes that are staccato (1/2 duration)
Irregular groupings are notated above the duration line
Duration letters will always appear directly above the note/fret number it represents the
duration for.  Duration letters with no fret number below them represent rests.  Multi-
bar rests are notated in the form Wxn, where n is the number of bars to rest for.  Low
melody durations appear below the staff

Tablature Legend
----------------
 h   - hammer-on
 p   - pull-off
 b   - bend
 pb  - pre-bend
 r   - bend release (if no number after the r, then release immediately)
 /\  - slide into or out of (from/to "nowhere")
 s   - legato slide
 S   - shift slide
n(n) - tapped harmonic
 ~   - vibrato
 tr  - trill
 T   - tap
 TP  - trem. picking
 PM  - palm muting
\n/  - tremolo bar dip; n = amount to dip
 \n  - tremolo bar down
 n/  - tremolo bar up
/n\  - tremolo bar inverted dip
 =   - hold bend; also acts as connecting device for hammers/pulls
   - volume swell (louder/softer)

Misc Legend
-----------
 |  - bar
||o - repeat start
o|| - repeat end
 :  - bar (freetime)
 &  - Coda


***************************************************************************************
* Generated using Power Tab Editor by Brad Larsen - http://* *
***************************************************************************************
Composição de Brett Gurewitz / Greg Graffin
2.254 exibições

0 comentários

Ver todos os comentários

Conseguiu tocar?

0 Tocaram 0 Ainda não

Grave um vídeo tocando New Dark Ages e nos envie!

00:00 / 00:00
Outros vídeos desta música
Repetir Qualidade Automático
Outros vídeos desta música
00:00 / 00:00
Automático

Cifra Club Pro

Aproveite o Cifra Club com benefícios exclusivos e sem anúncios
Cifra Club Pro
Aproveite o Cifra Club com benefícios exclusivos e sem anúncios
OK