Cifra Club

Sorrow

Bad Religion

Tab de baixo: Principal
Intro
G|--------------------------------------------------------------|
D|--------------------------------------------------------------|
A|------3-5-----------3-7-(5)------3-5-(7)----------------------|
E|--0h3-----(3)---0h3----------0h3----------0000000000000--320--|
         
Verse
G|----------------------------------------------|
D|----------------------------------------------|
A|-----------3-3-3-3--5-5-5-5-------------------|
E|--3-3-3-3--------------------3-3-3-3-3-3-3-3--|

G|----------------------------------------------|
D|----------------------------------------------|
A|-----------3-3-3-3--7-7-7-7--5-5-5-5-5-5-5-5--|
E|--3-3-3-3-------------------------------------|

G|----------------------------------------------|
D|----------------------------------------------|
A|-----------3-3-3-3--5-5-5-5--7-7-7-7-7-7-7-7--|
E|--3-3-3-3-------------------------------------|

Pre-Chorus
G|----------------------------------------------|           |-----|
D|----------------------------------------------|           |-----|
A|-----------3-3-3-3--5-5-5-5-------------------|           |-----|
E|--0-0-0-0--------------------3-3-3-3-3-3-3-3--|           |-320-|

Chorus
G|-------------------------------------|-----------------------------------------------|
D|-------------------------------------|-----------------------------------------------|
A|-----------3-3-3-3-------------------|-----------3-3-------7-7-7-7-7-7--5-5-5-5-5-5--|
E|--0-0-0-0-----------3-3-3-3-3-3\2\0--|--0-0-0-0-------3-3----------------------------|


Outro
G|-------------------------------------|----------------------------------------------|
D|-------------------------------------|----------------------------------------------|
A|-----------3-3-3-3-------------------|-----------2-2-2-2--7-7-7-7-7-7--5-5-5-5-5-5--|
E|--0-0-0-0-----------3-3-3-3-3-3\2\0--|--0-0-0-0-------------------------------------|

G|-------------------|-----------|
D|-------------------|-----------|
A|-------------------|--(7)------|
E|--3-3-3-3-3-3-3-3--|---ring----|
Composição de Brett Gurewitz / Greg Graffin
Colaboração e revisão:
  • Lety Ninja
1.264 exibições

0 comentários

Ver todos os comentários

Conseguiu tocar?

0 Tocaram 0 Ainda não

Grave um vídeo tocando Sorrow e nos envie!

00:00 / 00:00
Outros vídeos desta música
Repetir Qualidade Automático
Outros vídeos desta música
00:00 / 00:00
Automático

Cifra Club Pro

Aproveite o Cifra Club com benefícios exclusivos e sem anúncios
Cifra Club Pro
Aproveite o Cifra Club com benefícios exclusivos e sem anúncios
OK