Cifra Club

Sorrow

Bad Religion

Cifra: Versão 2 (violão e guitarra)
tom: G
ai galera,eu soh to enviando essa cifra,pq a outra tava em Tab's e tinha mta coisa errada...
daí eesa tah mais fácil e explicadinha ok?


primeiro acorde:                                                        
e|-12------------------------------------------------------------------
B|-12------------------------------------------------------------------
G|-12------------------------------------------------------------------   (obs: tbm dá pra tocar Em 
D|-12------------------------------------------------------------------    ao invés desse acorde)
A|---------------------------------------------------------------------
E|---------------------------------------------------------------------

Father can you hear me?
e|---------------------------------------------------------------------
B|---------------------------------------------------------------------
G|---------------------------------------------------------------------
D|---------------------------------------------------------------------
A|----3--5-------------------------------------------------------------
E|--0------3------------------------------------------------------------

How have I let you down?
e|---------------------------------------------------------------------
B|---------------------------------------------------------------------
G|---------------------------------------------------------------------
D|---------------------------------------------------------------------
A|-----3--7--5---------------------------------------------------------
E|--3------------------------------------------------------------------

I curse the day that I was born...
e|---------------------------------------------------------------------
B|---------------------------------------------------------------------
G|---------------------------------------------------------------------
D|---------------------------------------------------------------------
A|-----3--5--7---------------------------------------------------------
E|--3------------------------------------------------------------------



And all the sorrow in this world...

e|---------------------------------------------------------------------
B|---------------------------------------------------------------------
G|---------------------------------------------------------------------
D|---------------------------------------------------------------------
A|--7----3----5--------------------------------------------------------
E|----------------3----------------------------------------------------


Aki entram os acordes:Em,G,C,D e F#m 

G F#m Em            C      D        G     
    Let me take you to the hurting ground
    
                   C       Em       D   
    Where all good men are trampled down
   
            G        C             D      Em  
    Just to settle a bet that could not be won

                      C       D       G    
    Between a prideful father and his son

  F#m     Em           C        D       G    
    Well, you guard me now, for I can't see

                     C                  Em   D     
    A reason for the suffering and this long misery
    
            G     C                    D          Em
    What if every living soul could be upright and strong
    
                 C    D
    Well, then I do imagine...

   G     F#m  Em C    G
   There will be Sorrow
   
   D        F#m  Em C    G
   Yeah there will be Sorrow
   
   D        F#m  Em C    G   Em D
   And there will be Sorrow, no more

   G F#m Em            C      D        G    
   When all soldiers lay their weapons down
   
                             C             Em       D    
   Or when all kings and all queens relinquish their crowns

               G              C          D          Em  
   Or when the only true messiah rescues us from ourselves

             C  D
   It's easy to imagine...



   G     F#m  Em C    G
   There will be Sorrow
   
   D        F#m  Em C    G
   Yeah there will be Sorrow
   
   D        F#m  Em C    G   Em D
   And there will be Sorrow, no more


   SOLO:
E|----------------------------------------------------------------------------------------------------|
B|--12-----------12-----------------------------------------------------------------------------------|
G|--14b(16)~~----14b(16)14h15p14-12----------12h14-12~~--------12-------------------------------------|
D|----------------------------------14p12h14--------------12-14---12-12h14--12-14-14-12h14-12h14------|
A|---------------------------------------------------12-----------------------------------------------|
E|----------------------------------------------------------------------------------------------------|

E|----------------------------------------------------------------------------------------------------|
B|----------------------------------------12-13-15-13-12-12-13-12-------------------------------------|
G|-------------------12---12h14-12---12-14-----------------------14-12-14-12-14b(16)~~~---------------|
D|-12h14-12----12-14----14----------------------------------------------------------------------------|
A|----------12----------------------------------------------------------------------------------------|
E|----------------------------------------------------------------------------------------------------|

E|----------12----------------------------------------------------------------------------------------|
B|--------12--15-12-----------------------------------------------------------------------------------|
G|-14b(16)---------14-12-14-14b(16)-12-14-12~~--------------------------------------------------------|
D|----------------------------------------------------------------------------------------------------|
A|----------------------------------------------------------------------------------------------------|
E|----------------------------------------------------------------------------------------------------|
 

 G     F#m  Em C    G
   There will be Sorrow
   
   D        F#m  Em C    G
   Yeah there will be Sorrow
   
   D        F#m  Em C    G   Em D
   And there will be Sorrow, no more


   G     F#m  Em C    G
   There will be Sorrow
   
   D        F#m  Em C    G
   Yeah there will be Sorrow
   
   D        F#m  Em C    G   Em D
   And there will be Sorrow, no more

FINAL: Em


valeu Cifraclub!
essa eh minha primeira cifra aki no site i eu espero ki u pessoal goste...valeu!!
Composição de Brett Gurewitz / Greg Graffin
Colaboração e revisão:
  • Alan Alves
10.960 exibições
    • ½ Tom
    • A
    • Bb
    • B
    • C
    • Db
    • D
    • Eb
    • E
    • F
    • F#
    • G
    • Ab
  • Adicionar à lista

    0 comentários

    Ver todos os comentários

    Conseguiu tocar?

    1 Tocaram 0 Ainda não

    Grave um vídeo tocando Sorrow e nos envie!

    00:00 / 00:00
    Outros vídeos desta música
    Repetir Qualidade Automático
    Outros vídeos desta música
    00:00 / 00:00
    Automático

    Cifra Club Pro

    Aproveite o Cifra Club com benefícios exclusivos e sem anúncios
    Cifra Club Pro
    Aproveite o Cifra Club com benefícios exclusivos e sem anúncios
    OK