Cifra Club

You

Bad Religion

Tab de baixo: Principal
*Intro 
G|-------------------|
D|-------0-2-0-------|
A|-0-2-3-------3-2---|x4
E|-------------------| 

*Verso (x2)
G|---------------------------------------------------------------------2222-|
D|----------------------------------------------------------------0000------|
A|-00000000----------33333333----------00000000----------33333333-----------|
E|----------11111111----------33333333----------11111111--------------------|

*Pré-refrão 

G|----------------------------------00----|
D|-33333333-22222222-33333333-22-33----33-|
A|----------------------------------------|
E|----------------------------------------|

*Refrão
G|--------------------------------------------------------------------------------|
D|------------------------------------2222----------------------------------------|
A|-0000-----------0000-0000------3333------0000----------------0000---------------|
E|------1111-3333-----------1111----------------1111-3333-3333------1111-00000000-|

*Intro
*Verso
*Pré-refrão
*Refrão

*Final
A|-0000-----------3333-0000-----------33-22-0000-----------3333-0000------------------------------|
E|------1111-3333-----------1111-3333------------1111-3333-----------1111-00000000----0-1-3-1/5---|
Composição de Brett Gurewitz / Greg Graffin
Colaboração e revisão:
  • Conrado Lima
5.344 exibições

0 comentários

Ver todos os comentários

Conseguiu tocar?

2 Tocaram 0 Ainda não

Grave um vídeo tocando You e nos envie!

00:00 / 00:00
Outros vídeos desta música
Repetir Qualidade Automático
Outros vídeos desta música
00:00 / 00:00
Automático

Cifra Club Pro

Aproveite o Cifra Club com benefícios exclusivos e sem anúncios
Cifra Club Pro
Aproveite o Cifra Club com benefícios exclusivos e sem anúncios
OK