Cifra Club

Funeral

Band Of Horses

Cifra: Principal (violão e guitarra)
exibições 6.609
Tom: D# (com acordes na forma de C) Capotraste na 3ª casa
Saw them live when they opened up for Modest Mouse in Columbus. After watching some live 
I think i figured out the way they play it.

Capo on 3 all tabs relative to capo.

Intro/Verse (arppegiate(?) these)

e---8----3-----------------|
B---10---5---3---5---------|
G---10---5---4---5---------|
D------------5---7---------|
A--------------------------|
E--------------------------|


Verse/Outro

   F  C  G  Am
e--1-----3---0----|
B--1--1--0---1----|
G--2--0--0---2----|
D--3--2--0---2----|
A--3--3--2---0----|
E--1-----3--------|


Chorus

   G  C  F
e--3-----1---|
B--0--1--1---|
G--0--0--2---|
D--0--2--3---|
A--2--3--3---|
E--3-----1---|
Acordes para:

    0 comentários

      mostrar mais comentários

      Conseguiu tocar?

      2tocaram0ainda não

      Grave um vídeo tocando Funeral e mande pra gente!

      00:00 / 00:00
      outros vídeos desta música
      repetirqualidadeAutomático
      Outro vídeos desta música
        00:00 / 00:00
        OK