Cifra Club

Laredo

Band Of Horses

Cifra: Principal (violão e guitarra)
exibições 4.335
Tom: A#
Intro:

Riff:
(Guitarra 1)
E|----------------10-|----------------10-|
B|---8-11--8-11-8----|---8-11--8-11-8----|
G|-10----10-----10---|-10----10-----10---|
D|-8-----8------8----|-8-----8------8----|
A|-------------------|-------------------|
E|-------------------|-------------------|

(Guitarra 2)
  Bb                                               C7      Bb
E|-6-6-6-6-6-|-6-3-1----|-6-6-6-6-6-|-66--------|--------------|
B|-6-6-6-6-6-|-6-4-3-1--|-6-6-6-6-6-|-68--------|-3-3-3-3-3-3-3|
G|-----------|--------3-|-----------|----7-5-3-5-|-5-5-5-5-5-5-3|
D|-----------|----------|-----------|------------|--------------|
A|-----------|----------|-----------|------------|--------------|
E|-----------|----------|-----------|------------|--------------|

Verso 1:
 Bb5
Gonna take a trip to Laredo
 Bb5
Gonna take a dip in the lake
               Cm             C7 Cm
Ohhh, I'm at a crossroads with myself
 Cm                C7 Cm
I don't got no one else
Bb5
And possibilities at the door
Bb5
I won't be needing them anymore
                  Cm               C7 Cm
Ohhh, is this the first time in your life
 Cm              C7 Cm
It's hard just to get by

Refrão 1:
Eb        Dm                  Cm
Ohhh, my love, don't you even know?
Eb        Dm                  Cm
Ohhh, my love, are you really gone?
Cm   Bb
Oooohhhhh

(Intro)

Verso 2:
 Bb5
Can you see the world through a window?
 Bb5
Are you having troubles in droves?
                Cm   C7     Cm
Oh it ain't the worst thing I could do
C7   Cm
Is get back home to you
Bb5
I put a bullet in my Kia Lorenzo
Bb5
A kitchen knife up to my face
              Cm C7   Cm
Throw me in the deep of Jenner Lake

 Cm     C7   Cm
Believe me when I say

Refrão 2:
Eb     Dm                  Cm
Oh, my love, you don't even call
Eb     Dm                       Cm
Oh, my love, is that you on the phone?
Cm  Bb
oooohhhhh
Solo:

(Guitarra 2)
E|--------1-----|
B|-4-3-1-3-4-3-4|
G|--------------|
D|--------------|
A|--------------|
E|--------------|

Refrão:
Eb       Dm                  Cm
Ohhh, my love, you don't even know
Eb       Dm                  Cm
Ohhh, my love, are you really gone?
Cm  Bb
Gonnneeeee

( Bb )
Acordes para:
    Composição: Benjamin Bridwell Colaboração e revisão:
    • Jonathan Pessoa

    0 comentários

    mostrar mais comentários

    Conseguiu tocar?

    0 tocaram 0 ainda não

    Grave um vídeo tocando Laredo e mande pra gente!

    00:00 / 00:00
    outros vídeos desta música
    repetir qualidade Automático
    Outros vídeos desta música
    00:00 / 00:00
    Automático
    OK