Cifra Club

Aprenda

Cavalo Manco

Banda Calypso

Cifra: Principal (violão e guitarra)
Tom: F
(intro) Dm F Dm Gm A7 Dm  A7

Intro
E|----------------------------------------------------------------------------------
B|-0-3-4-5--3-5--3-5-8-5-3-5--3-5-8-8/12-10-12-10-12-15-12-10-12--------------------
G|----------------------------------------------------------------------------------
D|----------------------------------------------------------------------------------
A|----------------------------------------------------------------------------------
E|----------------------------------------------------------------------------------

E|----------------------------------------------------------------------------------
B|-0-3-4-5--3-5--3-5-8-5-3-5-8/12-10-10-8-8-8/12-10-10-8-5-3-5----------------------
G|----------------------------------------------------------------------------------
D|----------------------------------------------------------------------------------
A|----------------------------------------------------------------------------------
E|----------------------------------------------------------------------------------

          Dm
Chega pra cá meu bem que eu vou te ensinar
          C
a nossa dança do estado do pará
        Dm
é o calypso que chegou para ficar
       C
nesse swing você também vai entrar
Gm                             Bb
mexa o pezinhinho e vá soltando todo
         F
corpo de vez
Gm
depois me abraça com carinho e
         A7                   Dm
a gente pode fazer tudo outra vez
Bb
fique a vontade pra rodar e pra girar
      F
no salão
         Gm                   A7

e essa dança é pra mexer com vc e com
          Dm   A7
o seu coração
          Dm
não para não vem cá me da a tua mão
                 F
quero que sinta toda essa emoção
          Dm
cavalo manco agora eu vou te ensinar
Gm                     A7
isso e muito mais você só vai
                Dm  A7
encontrar no Pará      (bis)

(intro) Dm F Dm Gm A7 Dm  A7

(repete tudo)

  SOLO 1

          Dm                           Bb                        F
E|-10-10-10-------10-------10---10-10-10-------10-------10--8-8-8--------8-------8--
B|----------10-------10------------------11-------11---------------10------10-------
G|-------------10-------10-----------------10-------10----------------10------10----
D|----------------------------------------------------------------------------------
A|----------------------------------------------------------------------------------
E|----------------------------------------------------------------------------------

       Gm
E|-6-6-6------6------6---------------------------------------------------------------
B|-------8------8--------------------------------------------------------------------
G|---------7------7------------------------------------------------------------------
D|-----------------------------------------------------------------------------------
A|-----------------------------------------------------------------------------------
E|-----------------------------------------------------------------------------------

SOLO 2

          Dm                           Bb                        F
E|-10-10-10-------10-------10---10-10-10-------10-------10--8-8-8--------8-------8---
B|----------10-------10------------------11-------11---------------10------10--------
G|-------------10-------10-----------------10-------10----------------10------10-----
D|-----------------------------------------------------------------------------------
A|-----------------------------------------------------------------------------------
E|-----------------------------------------------------------------------------------


FIM DO SOLO
E|-9-9-9--------------
B|-------10-11--10----
G|--------------------
D|--------------------
A|--------------------
E|--------------------
Composição de Chimbinha / Joelma 107.332 exibições
    • ½ Tom
    • A
    • Bb
    • B
    • C
    • Db
    • D
    • Eb
    • E
    • F
    • F#
    • G
    • Ab
  • Adicionar à lista

    0 comentários

    Mostrar mais comentários

    Conseguiu tocar?

    11 Tocaram 1 Ainda não

    Grave um vídeo tocando Cavalo Manco e mande pra gente!

    00:00 / 00:00
    outros vídeos desta música
    repetir qualidade Automático
    Outros vídeos desta música
    00:00 / 00:00
    Automático

    Cifra Club Pro

    Aproveite o Cifra Club com benefícios exclusivos e sem anúncios
    7 dias grátis
    Cifra Club Pro
    Aproveite o Cifra Club com benefícios exclusivos e sem anúncios
    7 dias grátis
    OK