Cifra Club

Aprenda

Choro por você

Banda Calypso

Cifra: Principal (violão e guitarra)
Tom: B
INTRO: B F# E
E|----------------9---------------------------12-11-12-11-9----|
B|----------9--12---12-11-------12-11-9---------------------12-|
G|-----8-11---------------11-11---------9----------------------|
D|---9---------------------------------------------------------|
A|-------------------------------------------------------------|
E|-------------------------------------------------------------|

E|----------------9---------------------12---16-16-14-12-11-------|
B|----------9--12---12-11-------12-11-9---------------------------|
G|-----8-11---------------11-11-----------------------------------|
D|---9------------------------------------------------------------|
A|----------------------------------------------------------------|
E|----------------------------------------------------------------|

B          F#              E              
Por que você se foi de mim, num dia lindo
B          F#              E
E eu não acreditei que fosse pra valer
B          F#              E
Se um dia alguem me encontrar sorrindo
B          F#              E
Não sabe que por dentro eu choro, choro por você
Abm          F#              E
Eu brinquei de amor e você se entregou pra mim
Abm          F#              E
Me fez tudo de bom e eu não estava nem aí

          B       F#        E
Agora sou eu, sou eu, que chora por você
          B       F#   E
agora sou eu, sou eu, volta vem me ver 
       B    F#   E
Eu te amo, OH!...

SOLO: B F# E

repete do inicio ao fim 

refrão 4X
Composição de Tonny Brasil
53.834 exibições
  • Simplificar cifra
    • ½ Tom
    • A
    • Bb
    • B
    • C
    • Db
    • D
    • Eb
    • E
    • F
    • F#
    • G
    • Ab
  • Adicionar à lista

    0 comentários

    Mostrar mais comentários

    Conseguiu tocar?

    3 Tocaram 1 Ainda não

    Grave um vídeo tocando Choro por você e mande pra gente!

    00:00 / 00:00
    outros vídeos desta música
    repetir qualidade Automático
    Outros vídeos desta música
    00:00 / 00:00
    Automático

    Cifra Club Pro

    Aproveite o Cifra Club com benefícios exclusivos e sem anúncios
    7 dias grátis
    Cifra Club Pro
    Aproveite o Cifra Club com benefícios exclusivos e sem anúncios
    7 dias grátis
    OK