Cifra Club

Vivência

Banda de Pau e Corda

Cifra: Principal (violão e guitarra)
exibições 6.310
Tom: F
Intro 4x:  Gm7  F  Bm7(b5)  A

E|--13--12--10--12--10--8--10--|
B|---------------------------10|
G|-----------------------------|
D|-----------------------------|
A|-----------------------------|
E|-----------------------------|

E|----8/10--10-10-10-10-10-9------9----12-9---------|
B|--10-----------------------10-----10------10------|
G|--------------------------------------------------|
D|--------------------------------------------------|
A|--------------------------------------------------|
E|--------------------------------------------------|

E|-------------8--8/10---------|
B|--8--10--11------------------|
G|-----------------------------|
D|-----------------------------|
A|-----------------------------|
E|-----------------------------|

E|----8/10--10-10-10-10-10-9-10/12---9----12-9------|
B|--10---------------------------------10------10---|
G|--------------------------------------------------|
D|--------------------------------------------------|
A|--------------------------------------------------|
E|--------------------------------------------------|

       Gm7         F
Quem nasceu lá e viveu
    Bm7(b5)     A
Crescendo percebeu
  Gm7          C7/9
O canto do ferreiro
   F7+
Da casa do doutor
  Gm7        C7/9
O velho mensageiro
  F7+
Das cartas de amor
 E7
O homem, o vassourão
           A7
Limpando o chão da manhã

 Gm7        C7/9
Sabe, crê e chora
C7/9       F7+
Vive cada hora
Bb6
No canto do ferreiro
 Dm7    A  Dm
Da casa do doutor

(Intro)

       Gm7         F
Quem nasceu lá e viveu
    Bm7(b5)     A
Crescendo percebeu
  Gm7          C7/9
Viu descer o amor
   F7+
No céu de cada tarde
  Gm7        C7/9
Encontros nas esquinas
  F7+
Corridos pra esconder
E7
A moça e a canção
           A7
Deixando a graça para alguém

Gm7        C7/9
Sabe, crê e chora
C7/9       F7+
Vive cada hora
Bb6
No encontro nas esquinas
 Dm7    A  Dm
Nas tardes de amor

(Intro)

       Gm7         F
Quem nasceu lá e viveu
    Bm7(b5)     A
Crescendo percebeu
  Gm7          C7/9
O sino da capela
   F7+
Chamando pra rezar
  Gm7        C7/9
As noites de domingo
  F7+
As festas do lugar
E7
As rodas de ciranda
           A7
E as cantigas de ninar

Gm7        C7/9
Sabe, crê e chora
C7/9       F7+
Vive cada hora
Bb6
No sino da capela
Dm7    A  Dm
Nas festas do lugar

Gm7        C7/9
Sabe, crê e chora
C7/9       F7+
Vive cada hora
Bb6
Presente na lembrança
Dm7    A  Dm
Ausente do lugar

(Intro)
Acordes para:
    Composição: Roberto Andrade / Waltinho Colaboração e revisão:
    • Igor
    • Pedro Chaves
    • Henrique Veio

    0 comentários

    mostrar mais comentários

    Conseguiu tocar?

    4 tocaram 0 ainda não

    Grave um vídeo tocando Vivência e mande pra gente!

    00:00 / 00:00
    outros vídeos desta música
    repetir qualidade Automático
    Outros vídeos desta música
    00:00 / 00:00
    Automático
    OK