Cifra Club

Aprenda

Flores Amarelas

Floribella

Cifra: Principal (violão e guitarra)
tom: B
INTRO: 
 
  F#         D#m        G#m          C# 
e|--6v---------------------------------------- 
b|-------9-7-6b---------7v--6----------------- 
g|---------------8v------------9-6-7b--6v----- 
d|-------------------------------------------- 
a|-------------------------------------------- 
E|-------------------------------------------- 

 F#                                 D#m 
Ele esperava por ela com uma flor amarela 
 G#m                                  C# 
E ela estava sonhando com o amor da sua vida 
 F#                            D#m 
O amarelo do sol iluminava o caminho 
 G#m                                       C#     C#7 
Ela o sentia tão perto mesmo estando tão sozinha 
 
Refrão: 
 F#                       A#m 
Ela sabia que esse dia chegaria 
        C#m                                  F#       B 
Que um dia ele viria pra buscá-la com suas flores amarelas 
         G#m                         C# 
Não se apresse, não desista que um instante desse encontro  
       A#m                          D#m 
Está escrito nas estrelas como um sonho tão bonito 
      G#m            B 
Não duvide porque a vida 
        G#m      B     C#     C#7 
Sempre cumpre os seu destino 


  F#         D#m        G#m          C# 
e|--6v---------------------------------------- 
b|-------9-7-6b---------7v--6----------------- 
g|---------------8v------------9-6-7b--6v----- 
d|-------------------------------------------- 
a|-------------------------------------------- 
E|-------------------------------------------- 

 F#                                    D#m 
E nesse bar tão deserto se esperava o encontro 
 G#m                                  C# 
Ela chegou num vestido amarelo e tão vistoso 
 F#                                           D#m 
Ele chegou de repente os dois se olharam de frente 
 G#m                                        C#  C#7 
Toda uma vida sonhada e ninguém pôde dizer nada 
 
Refrão... 
 

SOLO: 
        F#        A#m       C#m      F#7       B 
e|------------------------------6h7s(6)-6-7-9-6s-2v---2-4-6s7- 
b|-----/11v--11s-6v---11s-5v---------------------------------- 
g|-9s11------------------------------------------------------- 
d|------------------------------------------------------------ 
a|------------------------------------------------------------ 
E|------------------------------------------------------------ 
 
     G#m        C#m     C#7 
e|-6-7-7s9---6-7s9-7-6-6h7-6b- 
b|---------------------------- 
g|---------------------------- 
d|---------------------------- 
a|---------------------------- 
E|---------------------------- 
 
Refrão... 
 
      F#                    B 
Ela sabia, Ele sabia, Ela sabia, Ele sabia 
      F#                      B                 C#    B    F# 
Que sabia, Ela sabia e se esqueceram de suas flores amarelas
Colaboração e revisão:
  • Brenda Palhares
8.845 exibições
    • ½ Tom
    • A
    • Bb
    • B
    • C
    • Db
    • D
    • Eb
    • E
    • F
    • F#
    • G
    • Ab
  • Adicionar à lista

    0 comentários

    Ver todos os comentários

    Conseguiu tocar?

    0 Tocaram 0 Ainda não

    Grave um vídeo tocando Flores Amarelas e nos envie!

    00:00 / 00:00
    outros vídeos desta música
    repetir qualidade Automático
    Outros vídeos desta música
    00:00 / 00:00
    Automático

    Cifra Club Pro

    Aproveite o Cifra Club com benefícios exclusivos e sem anúncios
    Cifra Club Pro
    Aproveite o Cifra Club com benefícios exclusivos e sem anúncios
    OK