Cifra Club

Aprenda

O Que Esconde o Conde

Floribella

Cifra: Principal (violão e guitarra)
tom: C#
INTRO: 
 
A#m 
 
1)-------------------------------------------- 
2)-------------------------------------------- 
3)---0-2-3-3-2-2-1-1-0--(4 vezes)-----0-2-3v-- 
4)-3--------------------------------3--------- 
5)-------------------------------------------- 
6)-------------------------------------------- 
 
                A#m 
Ás vezes me pergunto onde você está não sei se não te vejo 
Ou se apagaram a luz brincamos de esconder então vivemos em um  
             F 
Eterno desencontro não posso entender porque brigamos assim 
Eu não possuo a chave para o teu coração 
Não encontro o caminho já não sei onde vou 
                    A#m 
Ai, Conde, não te entendo 
 
  D#m  
Egoísta, generoso,cavaleiro, medieval 
      A#m 
É um doce, carinhoso mas também me trata mal 
         F#                    F                A# 
Será um príncipe azul em fantansia de senhor do mal? 
                         F               A# 
O que esconde o Conde? Quem sabe onde?  
               F                         A# 
Com suas mil caras passar a vida em um carnaval  
          D#                A            A#       A    G 
Máximo Augusto não sei se gosto ou se desgosto logo verá 
          D#              F           A# 
Maximo Augusto te dou um susto hipermortal      

A#m 
 
1)-------------------------------------------- 
2)-------------------------------------------- 
3)---0-2-3-3-2-2-1-1-0--(4 vezes)-----0-2-3v-- 
4)-3--------------------------------3--------- 
5)-------------------------------------------- 
6)-------------------------------------------- 
               A#m 
Ás vezes me pergunto onde você está não sei se não te vejo 
Ou se apagaram a luz brincamos de esconder então vivemos em um  
             F 
Eterno desencontro eu tento entender sua maneira de ser 
Estudo, analiso e não sei como fazer 
Pra estar sempre contigo tenho que aprender 
               A#m 
A desvendar mistérios 
 
  D#m  
Egoísta, generoso,cavaleiro, medieval 
      A#m 
É um doce, carinhoso mas também me trata mal 
         F#                    F                A# 
Será um príncipe azul em fantansia de senhor do mal? 
                         F               A# 
O que esconde o Conde? Quem sabe onde?  
               F                         A# 
Com suas mil caras passar a vida em um carnaval  
          D#                A            A#       A    G 
Máximo Augusto não sei se gosto ou se desgosto logo verá 
          D#              F           A# 
Maximo Augusto te dou um susto hipermortal      
Música(mesmos acordes do Refrão) 
 
Refrão... 
 
A#m 
 
1)-------------------------------------------- 
2)-------------------------------------------- 
3)---0-2-3-3-2-2-1-1-0--(4 vezes)-----0-2-3v-- 
4)-3--------------------------------3--------- 
5)-------------------------------------------- 
6)--------------------------------------------
Colaboração e revisão:
  • Brenda Palhares
5.340 exibições
    • ½ Tom
    • A
    • Bb
    • B
    • C
    • Db
    • D
    • Eb
    • E
    • F
    • F#
    • G
    • Ab
  • Adicionar à lista

    0 comentários

    Ver todos os comentários

    Conseguiu tocar?

    0 Tocaram 0 Ainda não

    Grave um vídeo tocando O Que Esconde o Conde e nos envie!

    00:00 / 00:00
    outros vídeos desta música
    repetir qualidade Automático
    Outros vídeos desta música
    00:00 / 00:00
    Automático

    Cifra Club Pro

    Aproveite o Cifra Club com benefícios exclusivos e sem anúncios
    Cifra Club Pro
    Aproveite o Cifra Club com benefícios exclusivos e sem anúncios
    OK