Te Sinto

Floribella

tom: F#
INTRO: 
 
   C#      D#        D#m     F#   G# 
1)------4-3--6----------5-4-2-2--4- 
2)--4-6-6-4--4-----4-5--2-2-2-2--4- 
3)6-6-6----------6------------3--5- 
4)6-------------------------------- 
5)--------------------------------- 
6)--------------------------------- 
 
 C#                G#       A#m            Fm 
Hoje eu acordei chorando, sonhei que não viria 
 F#             C#          F#           G# 
Que foi embora para sempre sem uma despedida 
 C#            G#      A#m           Fm 
As lagrimas corriam molhando o meu rosto 
F#                 C#        F#          G#    C#   G#7           
Levando embora um sonho lindo levando o meu sorriso 
                       C#    
Te sinto nesse beijo que não vem. 
     G#            G#m     A#7 
Te sinto em sua ausência. 
                 F#          
Te sinto no que resta desse amor. 
    F#m           B 
Te sinto em minha dor. 
                C#   
Te sinto em pensamento 
                D# 
Te sinto nas lembranças 
                  F# 
Te sinto em cada parte do meu corpo 
    G#          C# 
Te sinto por inteiro      
 

  C#      D#        D#m     F#   G# 
1)------4-3--6----------5-4-2-2--4- 
2)--4-6-6-4--4-----4-5--2-2-2-2--4- 
3)6-6-6----------6------------3--5- 
4)6-------------------------------- 
5)--------------------------------- 
6)--------------------------------- 
 

 C#              G#    A#m          Fm 
E não importa a forma e nem tua aparência 
 F#                  C#          F#            G# 
Nem onde, quando, e nem o nome,o nome que te chamem 
 C#                  G#    A#m             Fm 
Eu sei que está tão perto te sinto a cada dia 
 F#             C#            F#       G#   C#  G#7 
Eu acordei chorando, sabendo que hoje voltaria 
 
Refrão 2X 
 
 C#      D#        D#m     F#   G#    C# 
1)------4-3--6----------5-4-2-2--4- 
2)--4-6-6-4--4-----4-5--2-2-2-2--4- 
3)6-6-6----------6------------3--5- 
4)6-------------------------------- 
5)--------------------------------- 
6)---------------------------------
Página 1 / 1

Letras e título
Acordes e artista

resetar configurações
OK