Cifra Club

Deus Me Ama

Banda Geração Santa

Cifra: Principal (violão e guitarra)
tom: F
Intro 2x: C9  Bb

E|-15~15----15/17-13-15-12-13-15-13-12--------------13-12-12ph13--------------------------|
B|-------13---------------------------13--10--10/13--------------13-15-------13--15-------|
G|---------------------------------------------------------------------12--12--12---------|
D|----------------------------------------------------------------------------------------|
A|----------------------------------------------------------------------------------------|
E|----------------------------------------------------------------------------------------|

E|-15~15----15/17/19-15--12-12hp13-------12hp13--------12hp13-------12hp13----------------|
B|-------13-----------------------13-----------13------------13----------13---------------|
G|-----------------------------------14-----------14~~----------14----------14-12---------|
D|-------------------------------------------------------------------------------14-12-10-|
A|----------------------------------------------------------------------------------------|
E|----------------------------------------------------------------------------------------|


C9
Mesmo sendo assim pobre e pecador
 F
Deus me ama
C9
Mesmo sendo falho, mesmo sem merecer
 F
Deus me ama
C9
Se eu estou forte, se eu estou de pe
 F
Deus me ama
C9
Se eu estou fraco, se eu estou caido
         F
Ele nao deixa de me amar
C9
Sem o seu amor, sem o seu perdao
         F
O que seria de mim
C9
Deus me amou tanto que entregou seu filho
        F
Pra morrer em meu lugar

C9
Deus me ama
        F
O seu amor e tao grande incondicional
C9
Deus me ama
           Bb9                           C9
E ele esta sempre de bracos abertos pra mim
00:00 / 00:00
Outros vídeos desta música
Repetir
Outros vídeos desta música
Composição de Thalles Roberto
Colaboração e revisão:
  • Junior Teixeira
174 exibições
    • ½ Tom
    • A
    • Bb
    • B
    • C
    • Db
    • D
    • Eb
    • E
    • F
    • F#
    • G
    • Ab
  • Adicionar à lista

    0 comentários

    Ver todos os comentários

    Conseguiu tocar?

    0 Tocaram 0 Ainda não

    Grave um vídeo tocando Deus Me Ama e nos envie!

    Entre para oCifra Club PRO

    Tenha acesso a benefícios exclusivos no App e no Site

    • Chega de anúncios

    • Prioridade de compra em lançamentos

    • Mais recursos no app do Afinador

    • Atendimento Prioritário

    • Descontos nos produtos Cifra Club

    • Ajude a produzir mais conteúdo

    00:00 / 00:00

    Cifra Club Pro

    Aproveite o Cifra Club com benefícios exclusivos e sem anúncios
    Cifra Club Pro
    Aproveite o Cifra Club com benefícios exclusivos e sem anúncios
    OK