Seu Sangue

Banda Geração Santa

tom: A
(intro) F#m

E|12------------------12------------------
B|--10-12-----10--------10-12----10-------
G|-------9-11----------------9-11---------
D|----------------------------------------
A|----------------------------------------
E|----------------------------------------

(riff 1) - Enquanto canta o 1° Estrofe

E|-----------------------------------------10-10--9-9-||
B|-------10-10-10--9-9-9--10-10-10--9-9-9-------------||
G|----------------------------------------------------||
D|----------------------------------------------------||
A|----------------------------------------------------||
E|----------------------------------------------------||

(riff 2) Na parte que canta: "Ele já venceu" é assim:

E|---------------------------------------------------------||
B|-------10-10-10--9-9-9--10-10-10--9-9-9--10-10--9-9------||
G|---------------------------------------------------------||
D|---------------------------------------------------------||
A|---------------------------------------------------------||
E|---------------------------------------------------------||

(riff 1)
A           E
Seu sangue,  Sua cruz
F#m           D
Me levam de volta pra Deus
A          E
Sua morte,   Sua vida
F#m          D
As trevas,  ele já venceu

E          D             E            D
Seu amor me conquistou, Sou eterno devedor

G                 D
O véu se rasgou
                       F#m
Sua luz em mim brilhou
                   E                       D     E
Sua glória me cobriu Mais que vencedor eu sou
                      D
Mais que vencedor eu sou

(refrão - notas agudas menos o D)

A                          E
Sei que na sala do trono está
               F#m
Eu quero ir pra lá
            D
Pelo novo e vivo caminho
Página 1 / 1

Letras e título
Acordes e artista

resetar configurações
OK