Cifra Club

Me usa

Banda Magníficos

Cifra: Principal (violão e guitarra)
tom: A
[Intro] A  C#m  D  E  A  C#m  D  E
        A  C#m  D  E  A  C#m  D  E

E|-----------------------------------------------------------------------------------|
B|-------10~--12-12/14-12-10----10~--9-10-12-10-------12/14-12~-----------12---------|
G|--9-11---------------------11-----------------11-9-------------14-12-14----12/13~--|
D|-----------------------------------------------------------------------------------|
A|-----------------------------------------------------------------------------------|
E|-----------------------------------------------------------------------------------|

E|-----------------------------------------------------------------------------------------------| |
B|-------10~--12-12/14-12-10----10/12-10/12-10--9-10-12-10------12/14-12~--10-8-10-12--7/9-7-----| |
G|--9-11---------------------11----------------------------11-9------------------------------7~--| |
D|-----------------------------------------------------------------------------------------------| |
A|-----------------------------------------------------------------------------------------------| |
E|-----------------------------------------------------------------------------------------------| |

  A               Bm
Momentos de amor, quero com você
    D                 E
Momentos eternos prá nunca esquecer
    A              Bm
Se você me ama, me leva prá cama
  D                  E
Acende essa chama de amor e querer
F#m                     C#m
   Só nós dois em nosso ninho
E                    F#m  E
   Testemunhas para que?
F#m                  C#m
   Nossos corpos coladinhos
E                  F#
   Suadinhos de prazer

 B     E                     Ebm
Amor, me leva faz de mim o que quiser
  C#m        E
Me usa, me abusa pois o meu maior prazer
      F#
É ser tua mulher
 B     E                      Ebm
Amor, me leva faz de mim o que quiser
  C#m        E                            F#
Me usa, me abusa pois o meu maior prazer
         B
É ser tua mulher
Composição de Gino Liver / Jotinha
186.980 exibições
    • ½ Tom
    • A
    • Bb
    • B
    • C
    • Db
    • D
    • Eb
    • E
    • F
    • F#
    • G
    • Ab
  • Adicionar à lista

    0 comentários

    Ver todos os comentários

    Conseguiu tocar?

    13 Tocaram 5 Ainda não

    Grave um vídeo tocando Me usa e nos envie!

    00:00 / 00:00
    Outros vídeos desta música
    Repetir Qualidade Automático
    Outros vídeos desta música
    00:00 / 00:00
    Automático

    Cifra Club Pro

    Aproveite o Cifra Club com benefícios exclusivos e sem anúncios
    Cifra Club Pro
    Aproveite o Cifra Club com benefícios exclusivos e sem anúncios
    OK