Alguém

Malta

Composição de: Banda Malta
tom: C
Intro 2x: G  D  A  Bm

E|------------------------------------|  
B|-2h4p2---2--------------------------|
G|-------5----------------------------| 2x
D|------------------------------------|
A|-----------7/9-7-5-7----9h11p9------|
E|---------------------5---------12-9-|

G     D           A    Bm           G
Deixar que o tempo me tire logo daqui
           D             A    Bm            G
Quanto mais eu penso em mim, mais te vejo aqui
    D  A         Bm  G    D   A
E eu vou te esperar, e se eu não aguentar

Coro:

G                D          A
Para de mentir assim pra mim
      Bm
Inventando histórias
G                 D       Bm
Para de fingir que é o fim
           A
Não vou mudar agora

G            D
Ah, ah, ah, ah, ah, ah, ah, ah
    Bm          A
Ser mais um alguém
G            D
Ah, ah, ah, ah, ah, ah, ah, ah
A
Vazio

G     D           A    Bm          G
Deixar que o vento me leve logo daqui
           D             A     Bm           G
Quanto mais eu penso em mim, mais te vejo aqui
    D  A
E eu vou te esperar

G                D          A
Para de mentir assim pra mim
      Bm
Inventando histórias
G                 D       Bm
Para de fingir que é o fim
           A
Não vou mudar agora, aaaahh...

Solo: Bb  F  C  Dm
      Bb  F  C  C  G

E|----------------------------11/12-13-12-10-8-8h10-10p8-8-5h8-11/12~--9/10~~~---
B|-10/13h15-15p13-13-10-10h13----------------------------------------------------
G|-------------------------------------------------------------------------------
D|-------------------------------------------------------------------------------
A|-------------------------------------------------------------------------------
E|-------------------------------------------------------------------------------


G                D          A
Para de mentir assim pra mim
      Bm
Inventando histórias
G                 D       Bm
Para de fingir que é o fim
           A
Não vou mudar agora

G            D
Ah, ah, ah, ah, ah, ah, ah, ah
    Bm          A
Ser mais um alguém
G            D
Ah, ah, ah, ah, ah, ah, ah, ah
A
Vazio...
Página 1 / 1

Letras e título
Acordes e artista

resetar configurações
OK