Cifra Club

Cor de Caramelo

Banda Milennium

Cifra: Principal (violão e guitarra)
tom: B
--[Solo inicial]--

E|--6--6--6--6----------------|----------------------------|
B|--------------9--7h-9h-7----|----------------------------|
G|----------------------------|--------------6-----6h-8----|
D|----------------------------|--9-----9-------------------|
A|----------------------------|----------------------------|
E|----------------------------|----------------------------|

E|-----------7--6-----6h-7----|--6-------------------------|
B|-----------------9----------|--------9--9--------7--7----|
G|--------8-------------------|----------------------------|
D|----------------------------|----------------------------|
A|----------------------------|----------------------------|
E|----------------------------|----------------------------|



Intro: F# B F# C# F#   <-- (obs: a batida da música começa apenas no B...)


       F#           C#         B
Hoje eu vi você passar Foi um toque em mim
        F#           C#      B
Em meu peito uma paixão uma gota de amor

                  C#    B             C#
Que rola dos meus olhos  rumo ao coração


          B
  Teu sorriso me faz sentir bem
         F#
  Teu olhar é tão puro e tão Belo
         C#
  Mas o que me deixa alucinada
                    B        C#     F#
  É teu corpo bronzeado cor de caramelo


                        B
Vem desfilar na minha praia vem, vem sim
                      F#
Eu quero você do meu lado
                      C#
Menino eu estou apaixonada
   B                     F#
Você é o que sonhei pra mim


                       B
Fico voando estou nas nuvens estou no céu
                       F#
Quando você passa por mim
                       C#
Seu corpo parece um jardim
         B            C#     F#
Todo dourado tem cheiro de mel


--[Solo inicial]--
                          C#
Teus olhos castanhos é o sol
      B
Numa tarde de verão
        F#         C#
Como a luz do Aladim
     B
Cachoeira de luz que desce
       C#    B                  C#
Desses olhos  num corpo de manequim


          B
  Teu sorriso me faz sentir bem
         F#
  Teu olhar é tão puro e tão Belo
         C#
  Mas o que me deixa alucinada
                    B        C#     F#
  É teu corpo bronzeado cor de caramelo


                        B
Vem desfilar na minha praia vem, vem sim
                      F#
Eu quero você do meu lado
                      C#
Menino eu estou apaixonada
   B                     F#
Você é o que sonhei pra mim


                       B
Fico voando estou nas nuvens estou no céu
                       F#
Quando você passa por mim
                       C#
Seu corpo parece um jardim
         B            C#     F#
Todo dourado tem cheiro de mel
Compositor não encontrado.
Colaboração e revisão:
26.452 exibições
    • ½ Tom
    • A
    • Bb
    • B
    • C
    • Db
    • D
    • Eb
    • E
    • F
    • F#
    • G
    • Ab
  • Adicionar à lista

    0 comentários

    Ver todos os comentários

    Conseguiu tocar?

    4 Tocaram 0 Ainda não

    Grave um vídeo tocando Cor de Caramelo e nos envie!

    00:00 / 00:00
    Outros vídeos desta música
    Repetir Qualidade Automático
    Outros vídeos desta música
    00:00 / 00:00
    Automático

    Cifra Club Pro

    Aproveite o Cifra Club com benefícios exclusivos e sem anúncios
    Cifra Club Pro
    Aproveite o Cifra Club com benefícios exclusivos e sem anúncios
    OK