Cifra Club

A Resposta

Banda Opus Dei

Cifra: Principal
exibições 6.618
Tom: G
Intro: G D  Em C G D C

C                        G                        C                            G                      C
Se as lutas te sufocam a cada dia e os sonhos se perderam pelo chão procurando uma  
 G                                         D        C                     G                           C
saída como mais um na multidão esta vida é tão curta e passageira aqui não é o meu  
G        C                          G                                       D          Em                               C
lugar ser peregrino nesta terra estou longe do meu lar já cansei de andar contra o vento a  
 Am                                    D             Em                     C                         Am      C
procura de um pouco de carinho eu tentei de tudo pra ser feliz estou cansado de tentar  
              D
andar sozinho 
              G     C                            D       Am    C         D                      G                 D
O mundo te oferece tantas coisas mas amor paz não tem para te dar tudo pode mudar  
                      C                       D
eu sei se em Jesus você acreditar 

              G     C                            D      Am     C         D                      G                 D
O mundo te oferece tantas coisas mas amor paz não tem para te dar tudo pode mudar  
                      C        D           G
eu sei se em Jesus você acreditar 

intro 1x 

C                           G     C                           G       C                      G
O amor de deus é tudo é o caminho e a verdade é o refugio q preciso na hora da  
           D
tempestade 
        Em                                 C          Am                                D               Em
já cansei de andar contra o vento a procura de um pouco de carinho eu tentei de tudo para  
C                         Am     C                            D
ser feliz estou cansado de tentar andar sozinho 

              G     C                            D       Am     C         D                      G                 D
O mundo te oferece tantas coisas mas amor paz não tem para te dar tudo pode mudar  
                      C         D              G
eu sei se em Jesus você acreditar 

intro 2x 

              G     C                            D       Am    C         D                      G                 D
O mundo te oferece tantas coisas mas amor paz não tem para te dar tudo pode mudar  
                      C                       D
eu sei se em Jesus você acreditar 

              G     C                            D      Am     C         D                      G                 D
O mundo te oferece tantas coisas mas amor paz não tem para te dar tudo pode mudar  
                      C        D           G
eu sei se em Jesus você acreditar


SOLO
E|--------------10---------------------------------------------------------8-7h8p7------------------------------------------------------|
B|--10b12----------12r10~----8p7h8---10----------------------------------------10~----8—10b12r10----10p8h10--------------|
G|----------------------------------------------------9~-------9-9-9--------------------------------------------------------------------|
D|----------------------------------------------------------------------------------------------------------------------------------------|
A|-----------------------------------------------------------------------------------------------------------------------------------------|
E|-----------------------------------------------------------------------------------------------------------------------------------------|

E|--------------------15-14--------------------------------------------------------------------------------------------------------------|
B|---12-12-12----------------12~----15b17r15---15p12h15~-----------------13-12-10~-----8--10b12r10---10p8h10------------|
G|--------------------------------------------------- ---------------------------9-9-9---------------------------------------------------|
D|----------------------------------------------------------------------------------------------------------------------------------------|
A|-----------------------------------------------------------------------------------------------------------------------------------------|
E|-----------------------------------------------------------------------------------------------------------------------------------------|
Acordes para:
    Composição: Banda Opus DeiColaboração e revisão:
    • Guilherme Dotto
    • Gabriel Souza

    0 comentários

      mostrar mais comentários

      Conseguiu tocar?

      0tocaram0ainda não

      Grave um vídeo tocando A Resposta e mande pra gente!

      00:00 / 00:00
      outros vídeos desta música
      repetirqualidadeautomática
      Outro vídeos desta música
        00:00 / 00:00
        automática
        OK