Cifra Club

Aprenda

Ao Som do Mar

Banda Os Brothers

Cifra: Principal (violão e guitarra)
tom: D
Intro:  Bm  F#m  A  G  (2X)
        Bm A G

Solo da Intro:
E|------------------------------|
B|--------------------------7---|
G|---7-7-7-7-6---------7--9-----| 2x
D|-------------7-9-7----------9-|
A|------------------------------|
E|------------------------------|

E|------------------------------|
B|------------------------------|
G|-11-11-11-11-12-11------------| 2x
D|------------------12-14-12----|
A|------------------------------|
E|------------------------------|

E|--------------------------------------------------|
B|-12-12-12\10--10-10-10\8--8-8-8\7--7-7\5--5\3--3~-|
G|-11-11-11\9----9--9--9\7--7-7-7\6--6-6\4--4\2--2~-|
D|--------------------------------------------------|
A|--------------------------------------------------|
E|--------------------------------------------------|

Bm                           F#m
Lembra daquele amor que te dei
         A     G
Hoje eu gua___rdo
Bm                           F#m
Ja esqueceu doque te falei
A     G
Como   doi
Bm                           A
Você me deixou só outra vez
 G
E não teve dó

Bm                           F#m
Eu quero te dizer como estou
 A     G
Não dá mais
Bm                           F#m
Eu carrego comigo essa dor
A     G
Que você deixou
Bm                           A
Seu nome em meu peito guardei
                       G    A    B
Como uma prova desse amooooorrrr

Refrão:

D                      A
Ao som do vai vem do mar
D              A
Vou te procurar
D                      A
Dizer que é bom te amar
         G
E luto por esse amor
A
Nunca mais te deixar livre
     Bm
Amor

Repete toda música
Compositor não encontrado.
Colaboração e revisão:
  • Jannerson Souza
2.091 exibições
    • ½ Tom
    • A
    • Bb
    • B
    • C
    • Db
    • D
    • Eb
    • E
    • F
    • F#
    • G
    • Ab
  • Adicionar à lista

    0 comentários

    Ver todos os comentários

    Conseguiu tocar?

    0 Tocaram 0 Ainda não

    Grave um vídeo tocando Ao Som do Mar e nos envie!

    00:00 / 00:00
    Outros vídeos desta música
    Repetir Qualidade Automático
    Outros vídeos desta música
    00:00 / 00:00
    Automático

    Cifra Club Pro

    Aproveite o Cifra Club com benefícios exclusivos e sem anúncios
    Cifra Club Pro
    Aproveite o Cifra Club com benefícios exclusivos e sem anúncios
    OK