Cifra Club

Foi Amor

Banda Torpedo

Cifra: Principal (violão e guitarra)
exibições 14.382
Tom: A#
Intro(Gm Eb Cm7 Dm7)

E|--------------------------------------------------------------------------------------x12-
B|-----------------------------------------------------------4-------4-3------------6---x12-
G|------2-2-3------2-2-3-2-0----0-2-2-3---0-2-2-3-2-0------3-------3-----5-3------5-----x12-
D|----------------------------1---------1----------------5-------5--------------7-----------
A|---5-----------5-------------------------------------3-------3--------------5-------------
E|-3-----------3----------------------------------------------------------------------------

(Começar dedilhando no primeiro verso os acordes depois do solo da introdução)

Gm                                         Eb
Foi amor, fui me apaixonando aos poucos sem saber
                         Cm7
sinceramente não sei como te dizer
                          Dm7
o quanto me iludia com os teus carinhos
  Gm                                   Eb
Te dava amor também todas as contas do meu coração
                       Cm7
Para de repente você me fazer chorar
                  Dm7
ao me trocar por outro alguém

que nunca vai te amar

(Refrão)

Gm                        Eb
e agora você quer perdão, não!
                            Cm7
já te arranquei do coração, não!
                            Dm7
procure outra pessoa que goste de sofrer ou de chorar
Gm                                Eb
não! meu coração não é brinquedo, não!
                                Cm7
porque não cuidou bem do meu coração
                              Dm7
não venha me dizer que está arrependido amor comigo não!

Solo

E|-------------------------------------------------------------------------------------------------------
B|----------------------------------------------------------3-4-3---4-6-4-3---3-4-3---4-6-4-3--3-4-3-----
G|---0-2-3-2-0---0-2-3-5-3-2-0---0-2-3-2-0---0-2-3-5-3-2-0--------5---------5-------5---------5------5---
D|-1-----------1---------------1-----------1-------------------------------------------------------------
A|-------------------------------------------------------------------------------------------------------
E|-------------------------------------------------------------------------------------------------------

E|-------------------------------------------------------------------------------------------------------
B|-3-4-3---3-4--3-1--------------------------------------------------------------------------------------
G|-------5-----------3-2-0-------------------------------------------------------------------------------
D|-------------------------------------------------------------------------------------------------------
A|-------------------------------------------------------------------------------------------------------
E|-------------------------------------------------------------------------------------------------------


(Repete toda música)
Acordes para:
    Colaboração e revisão:
    • Amarante

    0 comentários

    mostrar mais comentários

    Conseguiu tocar?

    4 tocaram 0 ainda não

    Grave um vídeo tocando Foi Amor e mande pra gente!

    00:00 / 00:00
    outros vídeos desta música
    repetir qualidade Automático
    Outros vídeos desta música
    00:00 / 00:00
    Automático
    OK