Cifra Club

Bete Balanço

Barão Vermelho

Cifra: Principal (violão e guitarra)
tom: Em
[Intro] E5  A5  E5

[Tab - Intro]

   E5
E|-----------------------------------------------------|
B|-----------------------------------------------------|
G|-9----6/7----9----6/7\6/7\6--------------------------| (2x)
D|-9----6/7----9----6/7\6/7\6--------------------------|
A|-7----4/5----7----4/5\4/5\4--------------------------|
E|-----------------------------------------------------|

   A5
E|-----------------------------------------------------|
B|-----------------------------------------------------|
G|-2----4/5----2----4/5\4/5\4--------------------------|
D|-2----4/5----2----4/5\4/5\4--------------------------|
A|-0----2/3----0----2/3\2/3\2--------------------------|
E|-----------------------------------------------------|

   E5
E|-----------------------------------------------------|
B|-----------------------------------------------------|
G|-9----6/7----9----6/7\6/7\6--------------------------|
D|-9----6/7----9----6/7\6/7\6--------------------------|
A|-7----4/5----7----4/5\4/5\4--------------------------|
E|-----------------------------------------------------|

[Primeira Parte]

[Tab - Primeira Parte]

   E5
E|-----------------------------------------------------|
B|-----------------------------------------------------|
G|-9----6/7----9----6/7\6/7\6--------------------------| (2x)
D|-9----6/7----9----6/7\6/7\6--------------------------|
A|-7----4/5----7----4/5\4/5\4--------------------------|
E|-----------------------------------------------------|

   A5
E|-----------------------------------------------------|
B|-----------------------------------------------------|
G|-2----4/5----2----4/5\4/5\4--------------------------|
D|-2----4/5----2----4/5\4/5\4--------------------------|
A|-0----2/3----0----2/3\2/3\2--------------------------|
E|-----------------------------------------------------|

   E5
E|-----------------------------------------------------|
B|-----------------------------------------------------|
G|-9----6/7----9----6/7\6/7\6--------------------------| (2x)
D|-9----6/7----9----6/7\6/7\6--------------------------|
A|-7----4/5----7----4/5\4/5\4--------------------------|
E|-----------------------------------------------------|

   A5
E|-----------------------------------------------------|
B|-----------------------------------------------------|
G|-2----4/5----2----4/5\4/5\4--------------------------|
D|-2----4/5----2----4/5\4/5\4--------------------------|
A|-0----2/3----0----2/3\2/3\2--------------------------|
E|-----------------------------------------------------|

E|-----------------------------------------------------|
B|-----------------------------------------------------|
G|-9----6/7----9----6/7\6/7\6--------------------------|
D|-9----6/7----9----6/7\6/7\6--------------------------|
A|-7----4/5----7----4/5\4/5\4--------------------------|
E|-----------------------------------------------------|

E5
Pode seguir a tua estrela

O teu brinquedo de star
       A5
Fantasiando um segredo
                       E5
No ponto onde quer chegar

O teu futuro é duvidoso

Eu vejo grana, eu vejo dor
       A5
No paraíso perigoso
                            E5
Que a palma da tua mão mostrou

[Refrão]

[Tab - Refrão]

   B5        C5 A5       B5        C5    B5 G5
E|-----------------------------------------------------|
B|-----------------------------------------------------|
G|-4----4----5--2--------4----4----5-5-5-4-------------|
D|-4----4----5--2--------4----4----5-5-5-4-------------|
A|-2----2----3--0--------2----2----3-3-3-2--5-5/7------|
E|------------------------------------------3-3/5------|

              B5
Quem vem com tudo não cansa
 C5     A5          B5
Bete balança, meu amor
     C5       B5    G5
Me avise quando for    a hora

[Solo] E5  A5  E5

[Tab - Solo]

Parte 1 de 4
E|-----------------------------------------------------|
B|-----3-3---------------------------------------------|
G|-2/4--------b4r2p0-2p0-2-4---------------------------|
D|---------------------------/5--2-0-2--2-5~-----------|
A|-----------------------------------------------------|
E|-----------------------------------------------------|

Parte 2 de 4
E|-10----10----10-10-10----10--------------------------|
B|-10h12-10----10-10-10----10h12-----------------------|
G|----------12----------12-----------------------------|
D|-----------------------------------------------------|
A|-----------------------------------------------------|
E|-----------------------------------------------------|

Parte 3 de 4
E|-10----10----10----10-10-----------------------------|
B|-10h12-10----10----10-12--12b------------------------|
G|----------12----12--------12b------------------------|
D|------------------------------14-12-14~--------------|
A|-----------------------------------------------------|
E|-----------------------------------------------------|

Parte 4 de 4
E|-----------------------------------------------------|
B|-----------------------------------------------------|
G|-7/9-7~----------------------------------------------|
D|-7/9-7~----------------------------------------------|
A|-----------------------------------------------------|
E|-----------------------------------------------------|

[Ponte]

   B5        F#5       B5       (Passagem)
E|-----------------------------------------------------|
B|-----------------------------------------------------|
G|-4----4--------------4----4--------------------------|
D|-4----4----4----4----4----4--------------------------|
A|-2----2----4----4----2----2----7-7-5-3~--------------|
E|-----------2----2------------------------------------|

   B5        F#5       B5        C7M
E|-------------------------------0---------------------|
B|-------------------------------0---------------------|
G|-4----4--------------4----4----5---------------------|
D|-4----4----4----4----4----4----5---------------------|
A|-2----2----4----4----2----2----3---------------------|
E|-----------2----2------------------------------------|

B5               F#5
   Não ligue pra essas caras tristes
    B5                    (Passagem)  
Fingindo que a gente não existe
B5                F#5
   Sentadas, são tão engraçadas
 B5             C7M
Donas das suas salas

( E5 )

[Segunda Parte]

E5
   Pode seguir a tua estrela

O teu brinquedo de star
       A5
Fantasiando um segredo
                       E5
No ponto onde quer chegar

O teu futuro é duvidoso

Eu vejo grana, eu vejo dor
       A5
No paraíso perigoso
                               E5
Que a palma da tua mão mostrou

[Refrão]

              B5
Quem vem com tudo não cansa
 C5     A5           B5
Bete balança o meu amor
     C5       B5    G5    E5
Me avise quando for    a hora
             B5
Quem tem um sonho não dança
 F#5                 B5
Bete Balanço, por favor
     C5       B5    G5    E5
Me avise quando for    embora

[Final] E5  A5  E5  B5  C5  A5
        B5  C5  B5  G5  E5

[Tab - Solo Final]

Parte 1 De 6
E|-12-----12-------------------------------------------|
B|-15b17--15b17~----12-14-14b15--14b15--14b15r14-12----|
G|--------------------------------------------------14-|
D|-----------------------------------------------------|
A|-----------------------------------------------------|
E|-----------------------------------------------------|

E|-----------------------------------------------------|
B|-12~-------------------------------------------------|
G|-14b16~----------------------------------------------|
D|-----------------------------------------------------|
A|-----------------------------------------------------|
E|-----------------------------------------------------|

Parte 2 De 6
E|-----------------------------------------------------|
B|-----------------------------------------------------|
G|-12b-12----12h14---14-12-12h14---14-12-12h14---14-12-|
D|--------14-------------------------------------------|
A|-----------------------------------------------------|
E|-----------------------------------------------------|

E|-----------------------------------------------------|
B|------------12------------12\------------------------|
G|-12h14---14----12b--------12\------------------------|
D|-------------------14~-------------------------------|
A|-----------------------------------------------------|
E|-----------------------------------------------------|

Parte 3 De 6
E|-------12-14-14h15p14p12-----------------------------|
B|-14-15-------------------15-12~----------------------|
G|-----------------------------------------------------|
D|-----------------------------------------------------|
A|-----------------------------------------------------|
E|-----------------------------------------------------|

E|-----------------------------------------------------|
B|-15b17r----12-15-12~---------------------------------|
G|-----------------------------------------------------|
D|-----------------------------------------------------|
A|-----------------------------------------------------|
E|-----------------------------------------------------|

Parte 4 De 6
E|--------------------------------------15b17r---------|
B|--------------------12-15-----------------------15-12|
G|-12h14-12----12b14--------14b16r14p12----------------|
D|----------14-----------------------------------------|
A|-----------------------------------------------------|
E|-----------------------------------------------------|

Parte 5 De 6
E|-----------------------------------------------------|
B|-15b17--15b17--15---12-15-12---------15--------------|
G|-------------------------------14-12------12---------|
D|---------------------------------------------14------|
A|-----------------------------------------------------|
E|-----------------------------------------------------|

E|-----------------------------------------------------|
B|-----------------------------------------------------|
G|-12----12b-12b---------------------------------------|
D|----14---------14-12~--------------------------------|
A|-----------------------------------------------------|
E|-----------------------------------------------------|

Parte 6 De 6
E|----15-17b19--17b19----15----------------------------|
B|-17-----------------------17-------------------------|
G|-----------------------------------------------------|
D|-----------------------------------------------------|
A|-----------------------------------------------------|
E|-----------------------------------------------------|
00:00 / 00:00
Outros vídeos desta música
Repetir
Outros vídeos desta música
Composição de Cazuza / Frejat
Colaboração e revisão:
  • Vinícius Dias
  • Luciano santos
  • Rodrigo Teixeira
595.785 exibições
    • ½ Tom
    • Am
    • Bbm
    • Bm
    • Cm
    • C#m
    • Dm
    • Ebm
    • Em
    • Fm
    • F#m
    • Gm
    • G#m
  • Adicionar à lista

    0 comentários

    Ver todos os comentários

    Entre para oCifra Club PRO

    Tenha acesso a benefícios exclusivos no App e no Site

    • Chega de anúncios

    • Prioridade de compra em lançamentos

    • Mais recursos no app do Afinador

    • Atendimento Prioritário

    • Descontos nos produtos Cifra Club

    • Ajude a produzir mais conteúdo

    00:00 / 00:00
    Capítulos
    • Apresentação
    • Configuração dos Pedais
    • Dicas Introdução
    • Tocando Introdução Lenta
    • Dicas Primeira Parte
    • Tocando Primeira Parte Lenta
    • Dicas Refrão
    • Tocando Refrão Lento
    • Dicas Primeiro Solo
    • Tocando Solo Lento
    • Dicas Ponte
    • Tocando Ponte Lenta
    • Dica Riffs Guitarra 2
    • Tocando Riff 1
    • Tocando Riff 2
    • Tocando Riff 3
    • Dicas Solo Final
    • Tocando Solo Final Lento
    • Encerramento

    Cifra Club Pro

    Aproveite o Cifra Club com benefícios exclusivos e sem anúncios
    Cifra Club Pro
    Aproveite o Cifra Club com benefícios exclusivos e sem anúncios
    OK