Notificações Amigos pendentes

      Barão Vermelho

      Bete Balanço

      406.050 exibições
      Tom: G
      (intro)
      
      
      E|----------------------------|----------------------------------------------
      B|----------------------------|----------------------------------------------
      G|----9---6/7----9---6/7/6/7--|----2---4/5-----2---4/5/4/5-------9---6/7-----
      D|----9---6/7----9---6/7/6/7--|----2---4/5-----2---4/5/4/5-------9---6/7-----
      A|----7---4/5----7---4/5/4/5--|--0-----2/3---0-----2/3/2/3-------7---4/5-----
      E|--0----------0--------------|----------------------------------0-----------
                   (2x)
      
      
      (verso 1)
      
      E|-----------------|---------------------------|-----------------------------------------
      B|-----------^-----|---------------------------|-----------------------------------------
      G|---9---6/7--6/7--|----9---6/7----9---6/7/6/7-|---2---4/5-----2---4/5/4/5-------9---6/7-
      D|---9---6/7--6/7--|----9---6/7----9---6/7/6/7-|---2---4/5-----2---4/5/4/5-------9---6/7-
      A|---7---4/5--4/5--|----7---4/5----7---4/5/4/5-|-0-----2/3---0-----2/3/2/3-------7---4/5-
      E|-0---------------|--0----------0-------------|---------------------------------0-------
      
      
      Em                                       (2)
      Pode seguir a tua estrela o teu brinquedo de "star"
      Am                                   (1)         Em
      Fantasiando em segredo ao ponto onde quer chegar
       Em                            (3)
      O teu futuro é duvidoso| eu vejo grana, eu vejo dor
      Am                                              Em
      No Paraíso perigoso que a palma da sua mão mostrou
      
                     (1)                  (2)              (3)
      
      E|--------|----12----------|------------------|--------------------|
      B|-15--15-|--------15(1T)--|------------------|--------------------|
      G|--------|----------------|-----2(1/2T)--0---|----14(1T)(14)(1T)--|
      D|--------|----------------|------------------|--------------------|
      A|--------|----------------|------------------|--------------------|
      E|--------|----------------|------------------|--------------------|
      
      
      (verso 2)
      
      E|-----------------------------------------
      B|-----------------------------------------
      G|--4--4--5--2--4--4--5--5--5--4-----------
      D|--4--4--5--2--4--4--5--5--5--4--5--5/7---
      A|--2--2--3--0--2--2--3--3--3--2--5--5/7---
      E|--------------------------------3--3/5---
      
      
      Bm7                          C        Am         Bm7
      Quem vem com tudo não cansa, Bete Balanço, meu amor
      C                B7        Em  (solo 1)
      Me avise quando for a hora
      
      (solo 1)
      
      E|----------------------------------------------------------------------------
      B|----------------------------------------------------------------------------
      G|----9--6/7-----9---6/7/6/7---------7--7--7--------------------4-------------
      D|----9--6/7-----9---6/7/6/7---7/9------------7(1/2T)--5--7--7-----5----------
      A|----7--4/5-----7---4/5/4/5------------------------------------------7--6--5-
      E|--0----------0--------------------------------------------------------------
      
      
      E|-----------------------------------------------------------------------------------
      B|--15-----15--15--15--15--15--15--15-----15------15--15------12------12-------------
      G|--14h16--14--12--14--14--14--12--14h16--14(1T)--12--14--14------14------12(1/2T)---
      D|-----------------------------------------------------------------------------------
      A|-----------------------------------------------------------------------------------
      E|-----------------------------------------------------------------------------------
      
      
      E|----------------------------
      B|----------------------------
      G|--------------7/9----7--7---
      D|--14--12--14--7/9----7--7---
      A|----------------------------
      E|----------------------------
      
      
      (verso 3)
      
      E|----------------------------------------------------------|
      B|----------------------------------------------------------|
      G|--4--4--------4--4-------------------4--4--------4--4--5--|
      D|--4--4--4--4--4--4-------------------4--4--4--4--4--4--5--|
      A|--2--2--4--4--2--2--5h7--7--7--5--3--2--2--4--4--2--2--3--|
      E|--------2--2-------------------------------2--2-----------|
      
      
        Bm7         F#m7                    Bm7                   F#m7
      Não ligue pra essas caras tristes, fingindo que a gente não existe
       Bm7              F#m7         Bm7           C
      Sentadas são tão engraçadas, donas das suas sa...las
      
      (intro 2x)
      
      ------------------------------|
      ------------------------------|
      -----9---6/7-----9---6/7/6/7--|
      -----9---6/7-----9---6/7/6/7--|
      -----7---4/5-----7---4/5/4/5--|
      ---0-----------0--------------|
      
      
      (repete verso 1)
      
      (verso 2)
      
      E|-----------------------------------------
      B|-----------------------------------------
      G|--4--4--5--2--4--4--5--5--5--4-----------
      D|--4--4--5--2--4--4--5--5--5--4--5--5/7---
      A|--2--2--3--0--2--2--3--3--3--2--5--5/7---
      E|--------------------------------3--3/5---
      
      
      Bm7                          C        Am         Bm7
      Quem vem com tudo não cansa, Bete Balanço, meu amor
      C            B7         Em
      Me avise quando for a hora
                    Bm7             C     Am            Bm7
      Quem vem com tudo não dança, Bete Balanço, por favor
      C                B7        Em
      me avise quando for embora   (solo 2)
      
      (solo 2)
      
      E|--------------------------------------------------------------------------------------
      B|------------------12--14--14(1/2T)--14(1/2T)--14(1/2T)--12------12--------------------
      G|--15(1T)--15(T)---------------------------------------------14------12(1T)------------
      D|----------------------------------------------------------------------------14--------
      A|--------------------------------------------------------------------------------------
      E|--------------------------------------------------------------------------------------
      
      
      E|--------------------------------------------------------------------------------------
      B|--------------------------------------------------12----------12/----14--15-----------
      G|--12h14--14--12--14--14--12--14--14---12--14--14------12------12/---------------------
      D|----------------------------------------------------------14--------------------------
      A|--------------------------------------------------------------------------------------
      E|--------------------------------------------------------------------------------------
      
      
      E|--12--14--15h14--12-------------------------------------------------------------------
      B|---------------------15--12--15(1T)--12--15--12-----------------------------15--------
      G|-------------------------------------------------12h14--12------12--14(1T)------12----
      D|------------------------------------------------------------14------------------------
      A|--------------------------------------------------------------------------------------
      E|--------------------------------------------------------------------------------------
      
      
      E|-15(1T)--12---------------------------------------------------------------------------
      B|-------------12/--15(1T)--15(1T)--15--12--15--12----------12(1/2T)--------------------
      G|--------------------------------------------------14--12------------12------12--------
      D|------------------------------------------------------------------------14------14----
      A|--------------------------------------------------------------------------------------
      E|--------------------------------------------------------------------------------------
      
      
      E|------------------------15--17(1T)--17(1T)--15----------15----------------------------
      B|--------------------17--------------------------17--17------17--15(1T)--12------------
      G|--12--12--------------------------------------------------------------------14--14h16-
      D|----------14--12/---------------------------------------------------------------------
      A|--------------------------------------------------------------------------------------
      E|--------------------------------------------------------------------------------------
      
        Composição: CazuzaColaboração e revisão:
        • Luciano
        • Oregano

        Comentários 5

        140 .
        • jaquerichter jaquerichter: Em 17/10/2012 09:34

          Alguem sabe me dizer o que significa o acento circunflexo na tablatura?

        • lucasarrudafdc lucasarrudafdc: Em 03/09/2012 18:18

          frejat é foda!

          • Socrates Socrates: Em 07/07/2015 16:53

            Verdade, muito foda!!!!

        • gyan gyan: Em 19/09/2011 22:16

          melhor musica do mundo!!!!!!!!!!

        140 cancelar

        conseguiu tocar?

        • •••
        0:00 / 0:00

        Capítulos

          1 versão de violão dificuldade exibições contribuição e correção
          1 versão de guitarra dificuldade exibições contribuição e correção
          1 versão de cavaco dificuldade exibições contribuição e correção
          1 versão de teclado dificuldade exibições contribuição e correção
          1 versão de baixo exibições contribuição e correção
          1 versão de bateria exibições contribuição e correção
          1 versão de Guitar Proformatodownloadscontribuição
          play/pausefechar subir/descer velocidade
          6ª corda E5ª corda A4ª corda D3ª corda G2ª corda B1ª corda E
            acordes
            publicidade
            fechar
            ok