Cifra Club

Eu Queria Ter Uma Bomba

Barão Vermelho

Cifra: Principal (violão e guitarra)
Tom: A
[Intro] E  D  F#m  B7

E|--9-7---------9--7------------------------------------------------------------|
B|------9-5------------9--7---5-7-5-7/9-9-9-9-7-5--5--7/9-5-7/9-7--5-7-5--12b-9-|
G|------------------------------------------------------------------------------|
D|------------------------------------------------------------------------------|
A|------------------------------------------------------------------------------|
E|------------------------------------------------------------------------------|

E          D          F#m                 B7
Solidão a dois de dia, faz calor depois faz frio
E          D            F#m
Você diz já foi e eu concordo contigo
             B7                        E
Você sai de perto eu penso em suicídio
       D        F#m       B4 B
Mas no fundo eu nem ligo
A           B                  C#m    C#m/B
Você sempre volta com as mesmas notícias

E|-----------9b----|
B|-----------------|
G|-----------------|
D|-----------------|
A|-----------------|
E|-----------------|

A          B
Eu queria ter uma bomba
A            B
Um flit paralisante qualquer
A            E/G#                  F#m      G#m
Pra poder me livrar do prático efeito

E|-----------------|
B|-----------------|
G|----5-6b---6-5-0-|
D|-----------------|
A|-----------------|
E|-----------------|

A                    B
Das tuas frases feitas
A                    E     D      E
Das tuas noites perfeitas, perfeitas

[Solo] E  D  F#m  B7

E|--9-7---------9--7------------------------------------------------------------|
B|------9-5------------9--7---5-7-5-7/9-9-9-9-7-5--5--7/9-5-7/9-7--5-7-5--12b-9-|
G|------------------------------------------------------------------------------|
D|------------------------------------------------------------------------------|
A|------------------------------------------------------------------------------|
E|------------------------------------------------------------------------------|

E          D          F#m                 B7
Solidão a dois de dia, faz calor depois faz frio
E          D            F#m
Você diz já foi e eu concordo contigo
             B7                        E
Você sai de perto eu penso em homicídio
       D        F#m       B4 B
Mas no fundo eu nem ligo
A           B                  C#m    C#m/B
Você sempre volta com as mesmas notícias

E|-----------9b----|
B|-----------------|
G|-----------------|
D|-----------------|
A|-----------------|
E|-----------------|

A          B
Eu queria ter uma bomba,
A            B
Um flit paralisante qualquer
A            E/G#                  F#m      G#m
Pra poder te negar bem no último instante

E|-----------------|
B|-----------------|
G|----5-6b---6-5-0-|
D|-----------------|
A|-----------------|
E|-----------------|

A                    B
Meu mundo que você não vê,
A                    E     D      E
Meu sonho que você não crê, não crê

[Solo]
E|-----------------------------------------------------------------------------------------10-12|
B|-----8--10b---8---------------------------------------------------7-9-10-12-10-10-10-12b------|
G|-7-9--------------9---7--------------------------------------7--9-----------------------------|
D|------------------------10--------------------------------------------------------------------|
A|----------------------------------7--11---9-7---12--11-7-9------------------------------------|
E|----------------------------8--10-------------------------------------------------------------|

E|-10-12-10-12-15b-12---|
B|----------------------|
G|----------------------|
D|----------------------|
A|----------------------|
E|----------------------|
exibições 110.527
Acordes para:
    Composição: Cazuza Colaboração e revisão:

    0 comentários

    mostrar mais comentários

    Conseguiu tocar?

    1 tocaram 1 ainda não

    Grave um vídeo tocando Eu Queria Ter Uma Bomba e mande pra gente!

    00:00 / 00:00
    outros vídeos desta música
    repetir qualidade Automático
    Outros vídeos desta música
    00:00 / 00:00
    Automático
    OK