Enviar cifraEntrar

O Poeta Está Vivo

Barão Vermelho

Cifra: Principal
exibições 445.256
Tom: F
Intro: Dm7

Riff Intro:

  Dm7
E|5---5---5-5-5-5--5-----------------------
B|6---6---6-6-6-6--6-----------------------
G|5---5---5-5-5-5--5--5---5--5/7-----------
D|7---7---7-7-7-7--7-----------------------
A|5--5---5-5-5-5--5--3---3--3/5------------
E|-----------------------------------------

  ↓   ↓   ↓ ↑ ↑ ↓  ↓  ↑   ↑  ↓

Primeira Parte:
 Dm7
Baby, compra o jornal
   C/E       F9
E vem ver o sol
Gm7(9)              Bb6(11+)
Ele continua a brilhar
    D9(11)
Apesar de tanta barbaridade
 Dm7
Baby escuta o galo cantar
F9
   A aurora dos nossos tempos
Gm7(9)            Bb6(11+)
Não é hora de chorar
       D9(11)
Amanheceu o pensamento

Segunda Parte:
Bb6(11+)               C
         O poeta está vivo
           D9(11)
Com seus moinhos de vento
Bb6(11+)            C
         A impulsionar
                      D9(11)
A grande roda da história

Refrão:
      Eb7M                 Dm7
Mas quem tem coragem de ouvir
       Eb7M       Dm7
Amanheceu o pensamento
     Bb6(11+)         C
Que vai mudar o mundo
                     D7
Com seus moinhos de vento

(Primeira Parte com variação na letra)
 Dm7
Se você não pode ser forte
F9
   Seja pelo menos humana
          Gm7(9)                Bb6(11+)
Quando o papa e seu rebanho chegar
             D9(11)
Não tenha pena...
 Dm7
Todo mundo é parecido
        F9
Quando sente dor
     Gm7(9)          Bb6(11+)
Mas nú e só ao meio dia
               D9(11)
Só quem está pronto pro amor

Segunda Parte com variação na letra:
Bb6(11+)                 C
         O poeta não morreu
          D9(11)
Foi ao inferno e voltou
Bb6(11+)                 C
         Conheceu os jardins do Éden
   D9(11)
E nos contou

Refrão:
      Eb7M                 Dm7
Mas quem tem coragem de ouvir
       Eb7M       D7
Amanheceu o pensamento
     Bb6(11+)         C
Que vai mudar o mundo
                     Dm7
Com seus moinhos de vento

      Eb7M                 Dm7
Mas quem tem coragem de ouvir
       Eb7M       D7
Amanheceu o pensamento
     Bb6(11+)         C
Que vai mudar o mundo
                     Dm7
Com seus moinhos de vento

Solo: Dm7  F9  Bb6(11+)  Gm7(9)  Bb6(11+)  D9(11)

Parte 1 de 8

E|------------------------------------------x--------
B|8h10------10------10p8------8h10--10------x--10----
G|------------------------10----------------x--10----
D|------------------------------------------x--------
A|------------------------------------------x--------
E|10----10------10----------------------10-----------


Parte 2 de 8

E|-----3--3-----------------------------------x------
B|6----6--6--6--------------------6p5--6------6------
G|5----5--5--5-----------------5-------5------5------
D|3----3-----3---------3--5/7----------5------5------
A|-----------------3h5------------------------x------
E|---------------------------------------------------


Parte 3 de 8

E|8h10---8p5----5--------------x--10--x--------------
B|------------8----8/10\8--7---x--7---x--------------
G|-----------------------------x------x--------------
D|8------------------------0---x--0---x--------------
A|---------------------------------------------------
E|-------6-------------------------------------------


Parte 4 de 8

E|---13h15--13--12-------------x---------------------
B|10----------------13-----13--x--11-10-11p10--------
G|-----------------------------x--------------12-10--
D|0-----------------0----------x--0------------------
A|---------------------------------------------------
E|--------------------------------------0------------


Parte 5 de 8

E|---------------------------------------------------
B|-10----X-----10----X-------------------------------
G|-------X-----------X-------------------------------
D|-------X-----------X-------------------------------
A|-8-----X-----8-----X-------------------------------
E|---------------------------------------------------


Parte 6 de 8

E|1h3---3----3p1-----1--x--1-------------------------
B|----------------3-----x--3-----------------6/8/10--
G|----------------------x--------x-------5-7---------
D|----------------------x-----7--x-7-5h7-------------
A|-------------------1--x--1--5--x-5-----------------
E|3-------3------------------------------------------


Parte 7 de 8

E|1h3---3----3p1----1---x--1-------------------------
B|----------------3-----x--3-----------------6/8/10--
G|----------------------x--------x-------5-7---------
D|----------------------x-----7--x-7-5h7-------------
A|-------------------1--x--1--5--x-5-----------------
E|3-------3------------------------------------------


Parte 8 de 8

E|-8---------0---0---0-0-0-0-------------------------
B|----10-----6---6---6-6-6-6-------------------------
G|-----------5---5---5-5-5-5-------------------------
D|-----------0---0---0-0-0-0-------------------------
A|---------------------------------------------------
E|-----------6---6---6-6-6-6-------------------------


Segunda Parte:
Bb6(11+)                 C
         O poeta não morreu
          D9(11)
Foi ao inferno e voltou
Bb6(11+)                 C
         Conheceu os jardins do Éden
   D9(11)
E nos contou

Refrão:
      Eb7M                 Dm7
Mas quem tem coragem de ouvir
       Eb7M       D7
Amanheceu o pensamento
     Bb6(11+)         C
Que vai mudar o mundo
                     Dm7
Com seus moinhos de vento

      Eb7M                 Dm7
Mas quem tem coragem de ouvir
       Eb7M       D7
Amanheceu o pensamento
     Bb6(11+)         C
Que vai mudar o mundo
                     Dm7
Com seus moinhos de vento

Parte Final: Dm7

Riff Introdução:

Dm7
E|5---5---5-5-5-5--5-----------------------
B|6---6---6-6-6-6--6-----------------------
G|5---5---5-5-5-5--5--5---5--5/7-----------
D|7---7---7-7-7-7--7-----------------------
A|5---5---5-5-5-5--5--3---3--3/5-----------
E|-----------------------------------------

  ↓   ↓   ↓ ↑ ↑ ↓  ↓  ↑   ↑  ↓
  • 1
  • 2
  • 3
  • 4
  • 5
  • 6
  • 7
  • 8
  • 9
  • 10
  • 11
  • 12
    Acordes para:
      Composição: Dulce QuentalColaboração e revisão:

      0 comentários

        mostrar mais comentários

        Conseguiu tocar?

        24tocaram0ainda não

        Grave um vídeo tocando O Poeta Está Vivo e mande pra gente!

        00:00 / 00:00
        outros vídeos desta música
        repetirqualidadeautomática
        • automática
        Outro vídeos desta música
          Capítulos
          • Início
          • Tocando a música
          • Acordes da Introdução
          • Tocando a Introdução
          • Ritmo da Introdução
          • Acordes da Primeira Parte
          • Tocando a Primeira Parte
          • Ritmo da Primeira Parte
          • Acordes da Segunda Parte e Refrão
          • Tocando a Segunda Parte e Refrão
          • Ritmo da Segunda Parte
          • Ritmo do Refrão
          • Tocando Repetições e Solo
          • Tocando Repetições e Final
          • Encerramento
          00:00 / 00:00
          automática
          • automática
          Acordes para:violão e guitarra
          dificuldadeexibiçõescontribuições
          2 versões de Tab de baixoexibiçõescontribuições
          2 versões de Guitar Proformatodownloadscontribuição
          fecharplay/pause subir/descer velocidade
            acordes
            fechar
            OK
            Feedback