Cifra Club

Pro Dia Nascer Feliz

Barão Vermelho

Tab de baixo: Principal
Introdução

Parte 01 de 01

G|----------------------------------------------|
D|----------------------------------------------|
A|-0--0-0-0--0-0-0--0--0-0-0--0-0-0--0--0--0----|
E|----------------------------------------------|

G|----------------------------------------------|
D|----------------------------------------------|
A|-----0--0-0-0--0-0-0--0--0-0-0--0-0-0--0------|
E|-0-3------------------------------------------|

G|----------------------------------------------|
D|----------------------------------------------|
A|-0-0-0--0-0-0--0--0--0-------0--0-0-0---------|
E|------------------------0--3----------0-3-4---|

Primeira parte 

Todo dia a insônia...

Parte 01 de 03

G|----------------------------------------------|
D|----------------------------------------------|
A|-0--0-0-0--0-0-0-0--0-0-0-0--0-0-0-0--0-0-0-0-|
E|----------------------------------------------|

G|----------------------------------------------|
D|----------------------------------------------|
A|-0-0-0-0--0-0-0-0--0-0-0--5-0--0-0-0-0--------|
E|----------------------------------------------|

G|----------------------------------------------|
D|----------------------------------------------|
A|-0-0-0--0-0-0---------------------------------|
E|--------------0-3-4---------------------------|

Parte 02 de 03

G|----------------------------------------------|
D|----------------------------------------------|
A|----------------------------------------------|
E|-5--5-5-0-5-5-5-0--5-5-5-5--5-5-5-5-----------|

G|----------------------------------------------|
D|----------------------------------------------|
A|----------------------------------5--0--------|
E|-5-5-5-5--5-5-5-5--5-5-5-5--5-5-0-------------|

G|----------------------------------------------|
D|----------------------------------------------|
A|-0-0-0-0-0-0--0-0-0-0-0-0---------------------|
E|--------------------------0-------------------|

Parte 03 de 03

G|----------------------------------------------|
D|----------------------------------------------|
A|----------------------------------------------|
E|-3-3-3-0-3-3-3-0-3-3-3-0-3-3-3--1-1-1-0-------|

G|----------------------------------------------|
D|----------------------------------------------|
A|---------------------------------------3------|
E|-1-1-1-0-1-1-1-0-1-1-1--3--3-3-3-3-3-5--------|

G|----------------------------------------------|
D|----------------------------------------------|
A|-5--5-5-5-5--3-5---8--8---8--8-8-8-8--8-8-8-8-|
E|------------------------8---------------------|

G|----------------------------------------------|
D|----------------------------------------------|
A|----------------------------------------------|
E|-0-3------------------------------------------|

Refrão 

Estamos bem por um triz,pro dia nascer feliz...

Parte 01 de 03

G|----------------------------------------------|
D|-----------------------4----------------------|
A|-----4-------2-3-4-5-5---5-5-5----------------|
E|-5-5---5-0-3-------------------0--------------|

G|----------------------------------------------|
D|----------------------------------------------|
A|---2-3-4-0-5-3-2-2--------2-3-4-0-5-3-3-2-0---|
E|-3-----------------5-0--3---------------------|

Parte 02 de 03

G|----------------------------------------------|
D|----------------------------------------------|
A|-------------4---------2-3-4-5--5-5-5--5-5-5--|
E|-1-1-3-4-5-5---5-0-3-3------------------------|

G|----------------------------------------------|
D|----------------------------------------------|
A|-------2-3-4-0-5-3-2-2--------2-3-4-0-3-2-2-0-|
E|-0-3-3-----------------5-0--3-----------------|

Parte 03 de 03

G|----------------------------------------------|
D|----------------------------------------------|
A|----------------------------------------------|
E|-1-1--1-5--5-5-5-5--5-5-5---5-5-5-5--0-3-4----|

Segunda parte

Todo dia é dia,e tudo em nome do amor...

Parte 01 de 03

G|----------------------------------------------|
D|----------------------------------------------|
A|-0--0-0-0--0-0-0-0--0-0-0-0--0-0-0-0--0-0-0-0-|
E|----------------------------------------------|

G|----------------------------------------------|
D|----------------------------------------------|
A|-0-0-0-0--0-0-0-0--0-0-0--5-0--0-0-0-0--------|
E|----------------------------------------------|

G|----------------------------------------------|
D|----------------------------------------------|
A|-0-0-0--0-0-0---------------------------------|
E|--------------0-3-4---------------------------|

Parte 02 de 03

G|----------------------------------------------|
D|----------------------------------------------|
A|-0--0-0-0--0-0-0-0--0-0-0-0--0-0-0-0--0-0-0-0-|
E|----------------------------------------------|

G|----------------------------------------------|
D|----------------------------------------------|
A|-0-0-0-0--0-0-0-0--0-0-0--5-0--0-0-0-0--------|
E|----------------------------------------------|

G|----------------------------------------------|
D|----------------------------------------------|
A|-0-0--0-0-0-0-8\------------------------------|
E|----------------------------------------------|

Parte 03 de 03

G|----------------------------------------------|
D|-----------0h3-3-2----------------------------|
A|-------------------5-3------------------------|
E|-3-3-0-3-3-------------3--3-3-3-3--3-3--------|

G|----------------------------------------------|
D|----------------------------------------------|
A|---------------------2------------5-7-8-------|
E|-1-1-1-0-1-3-3-3-0-3---3-0-1-3-5-8------------|

G|----------------------------------------------|
D|----------------------------------------------|
A|-8-8-8-8--8-8-8-------------------------------|
E|----------------------------------------------|

Refrão 02

Estamos bem por um triz,pro dia nascer feliz...

Parte 01 de 04

G|----------------------------------------------|
D|-----------------------4----------------------|
A|-----4-------2-3-4-5-5---5-5-5----------------|
E|-5-5---5-4-3-------------------0--------------|

G|----------------------------------------------|
D|----------------------------------------------|
A|---2-3-4-0-5-3-2-2--------2-3-4-0-5-3-3-2-0---|
E|-3-----------------5-0--3---------------------|

Parte 02 de 04

G|----------------------------------------------|
D|----------------------------------------------|
A|-------------4---------2-3-4-5--5-5-5--5-5-5--|
E|-1-1-3-4-5-5---5-4-3-3------------------------|

G|----------------------------------------------|
D|----------------------------------------------|
A|-------2-3-4-0-5-3-2-2--------2-3-4-0-3-2-2-0-|
E|-0-3-3-----------------5-0--3-----------------|

G|----------------------------------------------|
D|----------------------------------------------|
A|---------0--0-0-0-0--0-0-0--------------------|
E|-1-1--1---------------------------------------|

Parte 03 de 04 ( tocar 3x )

Oh oh oh oh...

G|----------------------------------------------|
D|----------------------------------------------|
A|-0-0-0-0--0-0-0-0--0-0-0-0--0-0-0-0-----------|
E|----------------------------------------------|

Parte 04 de 04 

G|----------------------------------------------|
D|----------------------------------------------|
A|-0-0-0-0--------------------------------------|
E|---------0-3-4--------------------------------|

Terceira parte

Todo dia é dia,e tudo em nome do amor...

Parte 01 de 03

G|----------------------------------------------|
D|----------------------------------------------|
A|-0--0-0-0--0-0-0-0--0-0-0-0--0-0-0-0--0-0-0-0-|
E|----------------------------------------------|

G|----------------------------------------------|
D|----------------------------------------------|
A|-0-0-0-0--0-0-0-0--0-0-0--5-0--0-0-0-0--------|
E|----------------------------------------------|

G|----------------------------------------------|
D|----------------------------------------------|
A|-0-0-0--0-0-0---------------------------------|
E|--------------0-3-4---------------------------|

Parte 02 de 03

G|----------------------------------------------|
D|----------------------------------------------|
A|-0--0-0-0--0-0-0-0--0-0-0-0--0-0-0-0--0-0-0-0-|
E|----------------------------------------------|

G|----------------------------------------------|
D|----------------------------------------------|
A|-0-0-0-0--0-0-0-0--0-0-0--5-0--0-0-0-0--------|
E|----------------------------------------------|

G|----------------------------------------------|
D|----------------------------------------------|
A|-0-0--0-0-0-0--0-0-0--------------------------|
E|----------------------------------------------|

Parte 03 de 03

G|----------------------------------------------|
D|-----------0h3-3-2----------------------------|
A|-------------------5-3------------------------|
E|-3-3-0-3-3-------------3--3-3-3-3--3-3--------|

G|----------------------------------------------|
D|----------------------------------------------|
A|---------------------2-------------5-7-8------|
E|-1-1-1-0-1-3-3-3-0-3---3-0-1-3-5-8------------|

G|----------------------------------------------|
D|----------------------------------------------|
A|-8-8-8-8--8-8-8-------------------------------|
E|----------------------------------------------|

Refrão 03

Estamos bem por um triz,pro dia nascer feliz...

Parte 01 de 03

G|----------------------------------------------|
D|-----------------------4----------------------|
A|-----4-------2-3-4-5-5---5-5-5----------------|
E|-5-5---5-0-3-------------------0--------------|

G|----------------------------------------------|
D|----------------------------------------------|
A|---2-3-4-0-5-3-2-2--------2-3-4-0-5-3-3-2-0---|
E|-3-----------------5-0--3---------------------|

Parte 02 de 03

G|----------------------------------------------|
D|----------------------------------------------|
A|-------------4---------2-3-4-5--5-5-5--5-5-5--|
E|-1-1-3-4-5-5---5-0-3-3------------------------|

G|----------------------------------------------|
D|----------------------------------------------|
A|-------2-3-4-0-5-3-2-2--------2-3-4-0-3-2-2-0-|
E|-0-3-3-----------------5-0--3-----------------|

Parte 03 de 03

G|----------------------------------------------|
D|----------------------------------------------|
A|----------------------------------------------|
E|-1-1--0-3-4-----------------------------------|

Solo Instrumental ( Prelúdio )

Parte 01 de 01

G|----------------------------------------------|
D|----------------------------------------------|
A|----7-----------------------------------------|
E|-5-----3-3-3--2-2-2-0-2--0-3-3-3-3--3-3-3-3---|

G|----------------------------------------------|
D|----------------------------------------------|
A|----------------------------------------------|
E|-3-3-3-3--3-3-3-3-----------------------------|

Solo de Guitarra

Parte 01 de 01 ( Tocar 3x )

G|----------------------------------------------|
D|----------------------------------------------|
A|----------------------------------------------|
E|-5-5-5-5--5-5-5-5--5-5-5-5--5-5-5-5-----------|

G|----------------------------------------------|
D|----------------------------------------------|
A|----------------------------------------------|
E|-3-3-3-3--3-3-3-3--3-3-3-3--3-3-5-3-----------|

G|----------------------------------------------|
D|----------------------------------------------|
A|----------------------------------------------|
E|-2-2-2-2--2-2-2-2--2-2-2-2--2-2-2-2-----------|

G|----------------------------------------------|
D|----------------------------------------------|
A|----------------------------------------------|
E|-3-3-3-3--3-3-3-3---3-3-3-3--3-3-3-3----------|

Introdução 02 ( Final ) 

Parte 01 de 02

G|----------------------------------------------|
D|----------------------------------------------|
A|-0--0-0-0--0-0-0--0--0-0-0--0-0-0--0--0--0----|
E|----------------------------------------------|

G|----------------------------------------------|
D|----------------------------------------------|
A|-----0--0-0-0--0-0-0--0--0-0-0--0-0-0--0------|
E|-0-3------------------------------------------|

Parte 02 de 02

G|----------------------------------------------|
D|----------------------------------------------|
A|-0-0-0--0-0-0--0-0-5--5-5-5-5-5-5-5-5-5-.....-|
E|----------------------------------------------|

G|----------------------------------------------|
D|----------------------------------------------|
A|-............................................-|
E|----------------------------------------------|

G|----------------------------------------------|
D|----------------------------------------------|
A|-0--0-0-0-0-0-0--............................-|
E|----------------------------------------------|

G|----------------------------------------------|
D|----------------------------------------------|
A|-............................................-|
E|----------------------------------------------|

G|----------------------------------------------|
D|----------------------------------------------|
A|-0-0------------------------------------------|
E|----------------------------------------------|
00:00 / 00:00
Outros vídeos desta música
Repetir
Outros vídeos desta música
Composição de Cazuza / Roberto Frejat
Colaboração e revisão:
  • Reginaldo Costa
  • João Runco
10.568 exibições

0 comentários

Ver todos os comentários

Entre para oCifra Club PRO

Tenha acesso a benefícios exclusivos no App e no Site

  • Chega de anúncios

  • Prioridade de compra em lançamentos

  • Mais recursos no app do Afinador

  • Atendimento Prioritário

  • Descontos nos produtos Cifra Club

  • Ajude a produzir mais conteúdo

00:00 / 00:00
Capítulos
  • Tocando a música
  • Apresentação / Equipamentos
  • Afinação
  • TAB - Introdução
  • TAB - Primeira Parte - Parte 1 de 3
  • TAB - Primeira Parte - Parte 2 de 3
  • TAB - Primeira Parte - Parte 3 de 3
  • TAB Refrão 1 - Parte 1 de 3
  • TAB Refrão 1 - Parte 2 de 3
  • TAB Refrão 1 - Parte 3 de 3
  • TAB - Segunda Parte - Parte 1 de 3
  • TAB - Segunda Parte - Parte 2 de 3
  • TAB - Segunda Parte - Parte 3 de 3
  • TAB Refrão 2 - Parte 1 de 4
  • TAB Refrão 2 - Parte 2 de 4
  • TAB Refrão 2 - Parte 3 de 4
  • TAB Refrão 2 - Parte 4 de 4
  • TAB Refrão 3 - Parte 1 de 3
  • TAB Refrão 3 - Parte 2 de 3
  • TAB Refrão 3 - Parte 3 de 3
  • Instrumental
  • Solo de guitarra
  • TAB - Introdução 2 - Parte 1 de 2
  • TAB - Introdução 2 - Parte 2 de 2
  • Encerramento

Cifra Club Pro

Aproveite o Cifra Club com benefícios exclusivos e sem anúncios
Cifra Club Pro
Aproveite o Cifra Club com benefícios exclusivos e sem anúncios
OK