All We Ever Wanted Was Everything

Bauhaus

Composição de: Bauhaus / Daniel Ash / David J / Kevin Haskins / Peter Murphy
tom: G
Intro - Parte 1:

E|--0---------0----------0----------0----------0---------0----------0---------|
B|--0---------0----------0----------0----------0---------0----------0---------|
G|--0---------0----------0----------0----------0---------0----------0---------|
D|--2---------2----------3------3---2----------2---------2----------3---------|
A|--3-----3---0------0---0----------0------0---3-----3---0------0---0---------| 
E|--0---------0----------0----------0----------0---------0----------0---------|


Intro - Parte 2:

E|-----------------------------------------------------------------------------|
B|-----------------------------------------------------------------------------|
G|------0-------0-------0-------0---------0-------0-------0------0-------------|
D|----0---0---0---0---0---0---0---0---0-------0-------0-------0----------------|  2x
A|--3-------3-------3-------3-------3---2---3---2---3---2---3---2--------------|
E|-----------------------------------------------------------------------------|

Verso: 

E|-----------------------------------------------------------------------------|
B|-----------------------------------------------------------------------------|
G|--0--0--0--0--0--0--0--0--0--0--0--0--0--0--0--0-----------------------------|
D|--2--2--2--2--2--2--2--2--2--2--2--2--3--2--3--2-----------------------------|  12x
A|--3--3--3--3--3--3--3--3--0--0--0--0--0--0--0--0-----------------------------| 
E|-----------------------------------------------------------------------------|

Intro - Part 2:

E|-----------------------------------------------------------------------------|
B|-----------------------------------------------------------------------------|
G|------0-------0-------0-------0---------0-------0-------0------0-------------|
D|----0---0---0---0---0---0---0---0---0-------0-------0-------0----------------|  2x
A|--3-------3-------3-------3-------3---2---3---2---3---2---3---2--------------|
E|-----------------------------------------------------------------------------|

Refrão (Ooooooh):

E|--------------------------------------------------|
B|--------------------------------------------------|
G|--0--0--0--0--0--0--0--0--0--0--0--0--0--0--0--0--|
D|--2--2--2--2--2--2--2--2--2--2--2--2--3--3--3--3--|
A|--3--3--3--3--3--3--3--3--0--0--0--0--0--0--0--0--| 
E|--------------------------------------------------|

E|-----------------------------------------------|
B|-----------------------------------------------|
G|------------------------0--0--0--0--0--0--0--0-|
D|0--0--0--0--0--0--0--0--0--0--0--0--0--0--0--0-|
A|2--2--2--2--2--2--2--2--2--2--2--2--3--3--3--3-|
E|3--3--3--3--3--3--3--3--3--3--3--3--1--1--1--1-|

(Verso) 8x
(Refrão) 2x
(Verso) 12x
(Intro - Parte 1)
Página 1 / 1

Letras e título
Acordes e artista

resetar configurações
OK