Cifra Club

Sons Of The Stage

Beady Eye

Cifra: Principal (violão e guitarra)
Tom: G
Guitarra 1:
E|---------------------10---------------------------10------------------|
B|-12-12-12-12--10-10------12-12--10-10-10-10--9-9------12--10----------|
G|-11-11-11-11--11-11--11--11-11--9--9--9--9---9-9--9---9---9-----------|
D|----------------------------------------------------------------------|
A|----------------------------------------------------------------------|
E|----------------------------------------------------------------------|

Guitarra 2:
E|----------------------------------------------------------------------|
B|----------------------------------------------------------------------|
G|----------------------------------------------------------------------|
D|----------------------------------------------------------------------|
A|-9-9-9-9--7-7--9-9-9--7-7-7-7--7-7--9-9--7----------------------------|
E|-7-7-7-7--5-5--7-7-7--5-5-5-5--4-4--7-7--5----------------------------|

Guitarra 3:
E|----------------------------------------------------------------------|
B|----------------------------------------------------------------------|
G|----------------------------------------------------------------------|
D|-9-9-9-9-9-9-9-9--7-7-7-7--6-6--9-9--7--------------------------------|
A|-9-9-9-9-9-9-9-9--7-7-7-7--7-7--9-9--7--------------------------------|
E|-7-7-7-7-7-7-7-7--5-5-5-5--4-4--7-7--5--------------------------------|

Guitarra 4:
E|----------------------------------------------------------------------|
B|----------------------------------------------------------------------|
G|----------11--9--7-----------11--9--7-------------11--9--7------------|
D|-9-9-9-9------------7-7-7-7------------7-9-9-9-9----------------------|
A|----------9---7--5-----------9---7--5-------------9---7--5------------|
E|-7-7-7-7------------5-5-5-5------------5-7-7-7-5----------------------|
exibições 320
Acordes para:
    Composição: Andy Bell / Gem Archer / Liam Gallagher Colaboração e revisão:
    • Seth Cohen

    0 comentários

    mostrar mais comentários

    Conseguiu tocar?

    0 tocaram 0 ainda não

    Grave um vídeo tocando Sons Of The Stage e mande pra gente!

    00:00 / 00:00
    outros vídeos desta música
    repetir qualidade Automático
    Outros vídeos desta música
    00:00 / 00:00
    Automático
    OK