Eggman

Beastie Boys

tom: Afinação:
Tab by Matt Clark, Matt.C*
 

 Bass - intro and parts of verses
|-----7--9--------7--9------7--9-------7--9---------------------------|
|---------------------------------------------------------------------|
|-7---------7-7---------7---------7-----------------------------------|
|---------------------------------------------------------------------|


 This part is subsituted for the last bar of the verses somtimes.
|-----11-11-11--9--11-------------------------------------------------|
|---------------------------------------------------------------------|
|-7-9-----------------------------------------------------------------|
|---------------------------------------------------------------------|

|---------------------------------------------------------------------|
|---------------------------------------------------------------------|
|-4--(let ring)-------------------------------------------------------|
|---------------------------------------------------------------------|

 There is also a part with horns in it, "We all dressed in black.." 
 which I'm not sure about..

Página 1 / 1

Letras e título
Acordes e artista

resetar configurações
OK