Cifra Club

Aprenda

Spice Of Life

Beck

Tab de baixo: Principal
Notes: All strings tuned a half step down. (Match up to the little blurb played
before the song starts, he goes through
all the strings then hits 5 on the 4th [D#] string)
I'm bad at spacing out the rhythm,
but if you just listen to the song and follow along, you'll get it. :)
(Also, Im not exactly sure about the little blurbs (where i wrote 'Maybe')
they sound right to me most of the time, but i'm not 100% sure.
If you can correct me, feel free.)
A lot of the parts change a little bit each time so, I wrote out every pert individually,
even the ones that are just repeats.


Intro (0:20)
F#||------------------------------------|-----------------------------------|x3
C#||------------------------------------|-----------------------------------|
G#||------------------------------------|-----------------------------------|
D#||----3--0----3---3-5-----3--0--3--0--|----3--0----3--3--5-----3/5--/3-0--|

F#||------------------------------------|------------------------------------|
C#||------------------------------------|----------------------------------5-|
G#||------------------------------------|---------------------3----5----7----|
D#||----3--0----3---3-5-----3--0--3--0--|----3--0----3--3-5------------------|

Verse (0:43)                                                     (Maybe)
F#||------------------------------------|------------------------------------|
C#||---------------------5/7---5---5----|---------------------------4-5-3----|
G#||-----------------------------7---7--|-----------------------3-5-------5--|
D#||---5---3-0-3-0----------------------|--5---3-0-3-0-----0--5--------------|

F#||------------------------------------|------------------------------------|
C#||---------------------5/7---5---5----|------------------------------------|
G#||-----------------------------7---7--|---------------------3-----4--------|
D#||---5---3-0-3-0----------------------|--5---3-0-3-0-----------------------|

F#||------------------------------------|---------------------------6/7-5----|
C#||---------------------5/7---5---5----|-----------------------5-7-------7--|
G#||-----------------------------7---7--|---------------------7--------------|
D#||---5---3-0-3-0----------------------|--5---3-0-3-0-----0-----------------|

F#||------------------------------------|-----------------------------------|
C#||---------------------5/7---5---5----|-----------------------------------|
G#||-----------------------------7---7--|---------------------3-----4-------|
D#||---5---3-0-3-0----------------------|--5---3-0-3-0----------------------|

Prechorus (1:02)
F#||------------------------------------|------------------------------------|
C#||-------------------------------2/4--|------------------------------------|
G#||-----------------------------4------|------------------------------------|
D#||---0-2---2-------0-2---2------------|---0-2---2-----------0-2---2--------|

Chorus (1:13)
F#||------------------------------------|------------------------------------|x2
C#||------------------------------------|------------------------------------|
G#||---3-3-4-4-5------------------------|---3-3-4-4-5------------------------|
D#||----------------3-0----0-3--3-0-----|----------------3-0----0-3--3-0-----|

F#||------------------------------------|-----------------------------------|
C#||------------------------------------|-----------------------------------|
G#||---3--3--4--4--5--------------------|---3--3--4--4--5-------------------|
D#||------------------------0---3-0-----|------------------------0---3-0----|

F#||------------------------------------|-----------------------------------|
C#||------------------------------------|-----------------------------------|
G#||---3--3--4--4--5--------------------|---3--3--4--4--5-------------------|
D#||------------------------0---3-0-----|-----------------------------------|

Intro Riff (Bridge?) (1:32)
F#||------------------------------------|------------------------------------|x3
C#||------------------------------------|------------------------------------|
G#||------------------------------------|------------------------------------|
D#||----3--0----3---3-5-----3--0--3--0--|----3--0----3--3--5-----3/5--/3-0---|

F#||------------------------------------|-----------------------------------|
C#||------------------------------------|-----------------------------------|
G#||------------------------------------|-----------------------------------|
D#||----3--0----3---3-5-----3--0--3--0--|----3--0----3--3-5-----------------|

Verse 2 (1:42)
F#||------------------------------------|-------------------------------4-5-|
C#||---------------------5/7---5---5----|---------------------------4-5-----|
G#||-----------------------------7---7--|-----------------------3-5---------|
D#||---5---3-0-3-0----------------------|--5---3-0-3-0-----0--5-------------|

F#||------------------------------------|-----------------------------------|
C#||---------------------5/7---5---5----|-----------------------------------|
G#||-----------------------------7---7--|---------------------3-----4-------|
D#||---5---3-0-3-0----------------------|--5---3-0-3-0----------------------|

F#||------------------------------------|---------------------------4/5--3---|
C#||---------------------5/7---5---5----|-----------------------4-5--------5-|
G#||-----------------------------7---7--|---------------------5--------------|
D#||---5---3-0-3-0----------------------|--5---3-0-3-0-----0-----------------|

F#||------------------------------------|-----------------------------------|
C#||---------------------5/7---5---5----|-----------------------------------|
G#||-----------------------------7---7--|---------------------3-----4-------|
D#||---5---3-0-3-0----------------------|--5---3-0-3-0----------------------|

Prechorus (2:01)
F#||------------------------------------|-----------------------------------|
C#||-------------------------------2/4--|-----------------------------------|
G#||-----------------------------4------|-----------------------------------|
D#||---0-2---2-------0-2---2------------|---0-2---2-----------0-2---2-------|

Chorus (2:11)
F#||------------------------------------|------------------------------------|x2
C#||------------------------------------|------------------------------------|
G#||---3-3-4-4-5------------------------|---3-3-4-4-5------------------------|
D#||----------------3-0----0-3--3-0-----|----------------3-0----0-3--3-0-----|

F#||------------------------------------|-----------------------------------|
C#||------------------------------------|-----------------------------------|
G#||---3--3--4--4--5--------------------|---3--3--4--4--5-------------------|
D#||------------------------0---3-0-----|------------------------0---3-0----|


F#||------------------------------------|-----------------------------------|
C#||------------------------------------|-----------------------------------|
G#||---3--3--4--4--5--------------------|---3--3--4--4--5-------------------|
D#||------------------------0---3-0-----|-----------------------------------|

Guitar Solo/Bridge (2:30)
F#||------------------------------------|------------------------------------|x3
C#||------------------------------------|------------------------------------|
G#||-------------------5/7--5---5-------|------------------------------------|
D#||----5---3-0-3-0-----------7---7-----|---3/5---3-0-3-0----0-3-0-3-0-3-----|

F#||------------------------------------|-----------------------------------|
C#||------------------------------------|----------------------5---5---5-7--|
G#||-------------------5/7--5---5-------|--------------------7---7---7------|
D#||----5---3-0-3-0-----------7---7-----|---3/5---3-0-3-0-------------------|

F#||-------------------7/9--7---7-------|------------------------------------|x4
C#||-----7---5---5------------9---9-----|---5/7---5---5--------5---5---5-7---|
G#||-----------7---7--------------------|-----------7---7----7---7---7-------|
D#||------------------------------------|------------------------------------|

Prechorus (3:10)
F#||------------------------------------|------------------------------------|
C#||-------------------------------2/4--|------------------------4-2---------|
G#||-----------------------------4------|----------------------------4-2-0-2-|
D#||---0-2---2-------0-2---2------------|---0-2---2------0-2---2-------------|

F#||------------------------------------|-----------------------------------|
C#||-------------------------------2/4--|-----------------------------------|
G#||-----------------------------4------|-----------------------------------|
D#||---0-2---2-------0-2---2------------|---0-2---2-----------0-2---2-------|

Chorus (3:29)
F#||------------------------------------|------------------------------------|x2
C#||------------------------------------|------------------------------------|
G#||---3-3-4-4-5------------------------|---3-3-4-4-5------------------------|
D#||----------------3-0----0-3--3-0-----|----------------3-0----0-3--3-0-----|

F#||------------------------------------|------------------------------------|x3
C#||------------------------------------|------------------------------------|
G#||---3--3--4--4--5--------------------|---3--3--4--4--5--------------------|
D#||------------------------0---3-0-----|------------------------0---3-0-----|

F#||------------------------------------|-----------------------------------|
C#||------------------------------------|-----------------------------------|
G#||---3--3--4--4--5--------------------|---3-----4-----5-------------------|
D#||------------------------0---3-0-----|-----------------------------------|

Outro (3:58)
F#||------------------------------------|------------------------------------|x3
C#||------------------------------------|------------------------------------|
G#||------------------------------------|------------------------------------|
D#||----3--0----3---3-5-----3--0--3--0--|----3--0----3--3--5-----3/5--/3-0---|

F#||------------------------------------|-----------------------------------|
C#||------------------------------------|-----------------------------------|
G#||------------------------------------|-----------------------------------|
D#||----3--0----3---3-5-----3--0--3--0--|----3--0----3--3-5-----------------|


can be played on guitar also sounds alright but better on bass XD
Compositor não encontrado.
1.970 exibições

0 comentários

Ver todos os comentários

Conseguiu tocar?

0 Tocaram 0 Ainda não

Grave um vídeo tocando Spice Of Life e nos envie!

00:00 / 00:00
Outros vídeos desta música
Repetir Qualidade Automático
Outros vídeos desta música
00:00 / 00:00
Automático

Cifra Club Pro

Aproveite o Cifra Club com benefícios exclusivos e sem anúncios
Cifra Club Pro
Aproveite o Cifra Club com benefícios exclusivos e sem anúncios
OK