Cifra Club

Aprenda

You Taste Like Cookies

Beeshop

Cifra: Principal (violão e guitarra)
tom: Db (forma dos acordes no tom de D) Afinação: Eb Ab Db Gb Bb Eb
Para tocar a versão original,afine a guitarra em Eb Ab Db Gb Bb Eb
Algumas outras versões como a do (Terra Chat Show),a maioria dos acordes são tocados uma oitava acima.


(intro)

      D                                 A  A
E|-2~----------------------------------------x-x-x-------------|
B|-3~-2----2-----2----2---2---2------2--2----x-x-x-------------|
G|-2~---3----3-----3----3-------3~---2--2----x-x-x-------------|
D|-0~----------0------------0--------2--2----x-x-x-------------|
A|-0~----0-----------0-----------------------x-x-x-------------|
E|-0~----------------------------------------x-x-x-------------|

(durante os versos)
E|-5--5---7-7---9-7--5--5-7-5------------|
B|-7--7---7-7---7-7--7--7-7-7------------|
G|---------------------------------------|
D|---------------------------------------|
A|---------------------------------------|
E|---------------------------------------|

(versos)
D7+
She's having lunch
Bm7
I'm waking up
Em7                           G/B G
There's nothing like this girl
         Gm6             A7/4
In this small suburban city
D
The way she looks
Bm                 Em7               Em7/D
So good it spooks every single man around

Gm6                A7/4
She just can't be bound
Gb                   Bm        B7
Why do you ask me to leave you?
                     G/B
When all i want is to please you?
    Gm6          A7/4
I'd give all my love

                            D
'Cause when we talking like this
Gbm                       Bm7      B7
sometimes i wonder if you want me too
                           Em7   A7/4
And when you stare me like this
                     Gm6        A7/4
I wish i could do anything for you

                          D
And when you love me like this
Gbm7                     Bm7               Gm6
I wanna tell the world i love you  and i'd do

       D            A7/4                   D        D A7/4
If you tell me that you are in love with me too..

      D                                 A  A
E|-2~----------------------------------------x-x-x-------------|
B|-3~-2----2-----2----2---2---2------2--2----x-x-x-------------|
G|-2~---3----3-----3----3-------3~---2--2----x-x-x-------------|
D|-0~----------0------------0--------2--2----x-x-x-------------|
A|-0~----0-----------0-----------------------x-x-x-------------|
E|-0~----------------------------------------x-x-x-------------|

(solo base teclado)  D  F#m  Bm  B7  G  G7  Gm  A  D  F#m  Bm  Gm  D  A  D

(ponte)

(refrão)

(final)
            D          A7/4               D       Gm6
.. If you tell me that you are in love with me too..
         D          A7/4                    D       A7/4
If you tell me that you are in love with me too..
         D          A7/4                   Gm6
If you tell me that you are in love with me too..
               D
You taste like cookies
Composição de Lucas Silveira
25.141 exibições
    • ½ Tom
    • A
    • Bb
    • B
    • C
    • Db
    • D
    • Eb
    • E
    • F
    • F#
    • G
    • Ab
  • Adicionar à lista

    0 comentários

    Ver todos os comentários

    Conseguiu tocar?

    2 Tocaram 0 Ainda não

    Grave um vídeo tocando You Taste Like Cookies e nos envie!

    00:00 / 00:00
    Outros vídeos desta música
    Repetir Qualidade Automático
    Outros vídeos desta música
    00:00 / 00:00
    Automático

    Cifra Club Pro

    Aproveite o Cifra Club com benefícios exclusivos e sem anúncios
    Cifra Club Pro
    Aproveite o Cifra Club com benefícios exclusivos e sem anúncios
    OK