Cifra Club

Stand By Me

Ben E. King

Cifra: Principal
exibições 260.898
Tom: A
Riff Intro:


1
E|----------------------------------------------------|
B|----------------------------------------------------|
G|----------------------------------------------------|
D|----------------------------------------------------|
A|-0-x-0-------0-x-0-----0----------------------------|
E|--------0-4--------------4-2-x-2---0--2-x-2--2-0----|

2
E|----------------------------------------------------|
B|----------------------------------------------------|
G|-0-x-0---0-4---2-x-2--------------------------------|
D|----------------------------------------------------|
A|--------------------------0-x-0------0-x-0----------|
E|---------------------0-4---------0-4--------0-4-----|


Ritmo + Riff

1
   A
E|-----0-0----------0-0---------------------|
B|---x-2-2------2-x-2-2---------------------|
G|-2-x-2-2------2-x-2-2---------------------|
D|-2-x-2-2------2-x-2-2---------------------|
A|-0-x-0-0------0-x-0-0--0------------------|
E|----------0-4------------4----------------|


2

   F#m7
E|-----2-2-------x-2-2----------------------|
B|---x-2-2-------x-2-2----------------------|
G|-2-x-2-2-----2-x-2-2----------------------|
D|-2-x-2-2-----2-x-2-2----------------------|
A|-4-x-4-4-----4-x-4-4----------------------|
E|-2-x-2-2--0--2-x-2-2--2-0-----------------|


3

   D              E
E|---x-2-2----------x-0-0-------------------|
B|-3-x-3-3--------0-x-0-0-------------------|
G|-2-x-2-2--------1-x-1-1-------------------|
D|-0-x-0-0--0-4---2-x-2-2-------------------|
A|----------------2-x-2-2-------------------|
E|----------------0-x-0-0--0-4--------------|

4

   A
E|-----0-0----------0-0---------------------|
B|---x-2-2------2-x-2-2---------------------|
G|-2-x-2-2------2-x-2-2---------------------|
D|-2-x-2-2------2-x-2-2---------------------|
A|-0-x-0-0------0-x-0-0---------------------|
E|----------0-4----------0-4----------------|


Primeira Parte:

          A
When the night has come
F#m7
  And the land is dark
         D          E              A
And the moon is the only light we see
      A
No I won't be afraid
   F#m7
Oh I won't be afraid
         D            E              A
Just as long as you stand, stand by me

Refrão:

So darling, darling
  A
Stand by me
      F#m7
Oh! Stand by me
      D    E           A
Oh, Stand,   stand by me


Repete a Primeira Parte:
         A
If the sky that we look upon
F#m7
  Should tumble and fall
         D                E             A
And the mountain should crumble to the sea
          A
I won't cry , I won't cry
      F#m7
No I won't shed a tear
         D            E              A
Just as long as you stand, stand by me

Repete o Refrão:
                       A
And darling, darling stand by me
      F#m7
Oh! Stand by me
      D        E             A
Wow stand now,   stand by me   stand by me

A  F#m7  D  E  A
A  F#m7  D  E  A

Repete o Refrão:
                       A
And darling  darling stand by me
      F#m7
Oh! Stand by me
      D        E             A
Oh, stand now,   stand by me   stand by me
                                       A
Whenever you're in trouble won't you stand by me
      F#m7       D  E  A
Oh! stand by me
Acordes para:
    Colaboração e revisão:
    • Gustavo Cunha
    • Filipe Gomes
    • Lucas Freitas

    0 comentários

      mostrar mais comentários

      Conseguiu tocar?

      51tocaram1ainda não

      Grave um vídeo tocando Stand By Me e mande pra gente!

      00:00 / 00:00
      outros vídeos desta música
      repetirqualidadeautomática
      Outro vídeos desta música
        00:00 / 00:00
        automática
        Capítulos
        • Tocando a música
        • Dicas iniciais / Equipamentos
        • Acordes da música
        • Ensinando Riff Principal
        • Encerramento
        • Ficha técnica / Erros de Gravação
        OK