Cifra Club

Aprenda

Stand By Me

Ben E. King

Tab de baixo: Principal
Introdução:

G|---------------------------------------------------
D|-7-7-7---6-7-7-7-7-6-4-4---4-4-4---------4---------
A|-------7-----------------7-------7-5-5-5---7-7-----
E|---------------------------------------------------

G|---------------------------------------------------
D|---6-7-7---6-7-7-----------------------------------
A|-7-------7-----------------------------------------
E|---------------------------------------------------


Groove da música:

G|---------------------------------------------------
D|---6-7-7---6-7-7-7-6-4-4---4-4---------4-----------
A|-7-------7---------------7-----7-5-5-5---7-7-------
E|---------------------------------------------------

G|---------------------------------------------------
D|---6-7-7---6-7-7-----------------------------------
A|-7-------7-----------------------------------------
E|---------------------------------------------------


When the night has come,
And the land is dark
And the moon,
Is the only light we'll see

No, I won't, be afraid
Oh I won't
Be afraid
Just as long as you
Stand, stand by me

So darlin', darlin'
Stand... by me
Oh, stand by me (x2)
Stand by me

If the sky
That we look upon,
Should tumble and fall
Or the mountain,
Should crumble to the sea

I won't cry, I won't cry.
No I won't shed a tear
Just as long
As you stand
Stand by me

And darlin', darlin'
Stand, by me
Oh stand by me
Woah stand now,
Stand by me
Stand by me

Darlin', darlin'
Stand, by me
Oh stand, by me
Oh stand now,
Stand by me,
Stand by me

Whenever you're in trouble,
Wont you stand by me, oh stand by me
Wow Stand by me
Oh stand by me
Composição de Ben E. King / Leiber / Stoller
Colaboração e revisão:
  • Filipe Marks
  • Jefferson Sousa
10.604 exibições

0 comentários

Mostrar mais comentários
00:00 / 00:00
outros vídeos desta música
repetir qualidade Automático
Outros vídeos desta música
00:00 / 00:00
Automático
Capítulos
  • Início
  • Tocando a música
  • Ensinando Introdução
  • Ensinando Variações no Groove
  • Encerramento

Cifra Club Pro

Aproveite o Cifra Club com benefícios exclusivos e sem anúncios
Cifra Club Pro
Aproveite o Cifra Club com benefícios exclusivos e sem anúncios
OK