Cifra Club

Aprenda

Waiting On An Angel

Ben Harper

Cifra: Principal (violão e guitarra)
Já pensou em usar uma coleção de roupas do Cifra Club? Responda as perguntas abaixo e nos ajude nessa missão! →
tom: C
Intro:

E|----------------------------------------|
B|----1--1-----1--1-----1--1-------0--0h1-|
G|----0--0-----0--0-----2--2-------0--0---|
D|----------------------------------------|
A|--3--------2-------0--------------------|
E|------------------------------3---------|

E|----------------------------------------|
B|----1--1-----1--1-----1--1--------------|
G|----0--0-----0--0-----2--2--------------|
D|----------------------------------------|
A|--3--------2-------0--------------------|
E|------------------------------3---------|

Riff 1:

      C        C/B     Am         G
E|----------------------------------------|
B|----1--1-----1--1-----1--1-------0--0h1-|
G|----0--0-----0--0-----2--2-------0--0---|
D|----------------------------------------|
A|--3--------2-------0--------------------|
E|------------------------------3---------|

Riff 2:

E|----------------------------------------|
B|-----1--1----0--0-----1--1-----1--1-----|
G|-----2--2----0--0-----2--2-----2--2-----|
D|---3------------------------------------|
A|--------------------0-------------------|
E|-----------3-----------------0----------|

Riff 3:

E|-----------------------|
B|-----1--1----0--0------|
G|-----2--2----0--0------|
D|---3-------------------|
A|-----------------------|
E|-----------3-----------|

obs: após o riff 3, toca-se o riff 1 duas vezes antes de começar a parte seguinte

Intro

1ª Parte:

Waiting on an angel.            | Riff 1
One to carry me home.           |
Hope you come to see me soon,   |

cause I don't wanna go alone,   | Riff 2

I don't wanna go alone.         | Riff 3

2ª Parte:

Now angel won't you come by me  | Riff 1
angel hear my plea              |
take my hand lift me up         |

so that I can fly with thee     | Riff 2
so that I can fly with thee     | 

Refrão:

And I'm waiting on an angel     | Riff 2
and I know it won't be long     |
to find myself a resting place  | 
in my angel's arms              |

in my angel's arms              | Riff 3

3ª Parte:

So speak kind to a stranger     | Riff 1
cause you'll never know         |
it just might be an angel come  |

knockin' at your door           | Riff 2
knockin' at your door           |

Refrão:

And I'm waiting on an angel     | Riff 2
and I know it won't be long     |
to find myself a resting place  |
in my angel's arms              |

in my angel's arms              | Riff 3

4ª Parte:

Waiting on an angel             | Riff 1
one to carry me home            |
hope you come to see me soon    |

cause I don't want to go alone  | Riff 2
I don't want to go alone        |
don't want to go                |
I don't want to go alone        |
Composição de Ben Harper
Colaboração e revisão:
  • Samuel Moraes
3.077 exibições
    • ½ Tom
    • A
    • Bb
    • B
    • C
    • Db
    • D
    • Eb
    • E
    • F
    • F#
    • G
    • Ab
  • Adicionar à lista

    0 comentários

    Ver todos os comentários

    Conseguiu tocar?

    0 Tocaram 0 Ainda não

    Grave um vídeo tocando Waiting On An Angel e nos envie!

    00:00 / 00:00
    Outros vídeos desta música
    Repetir Qualidade Automático
    Outros vídeos desta música
    00:00 / 00:00
    Automático

    Cifra Club Pro

    Aproveite o Cifra Club com benefícios exclusivos e sem anúncios
    Cifra Club Pro
    Aproveite o Cifra Club com benefícios exclusivos e sem anúncios
    OK