Cifra Club

Aprenda

Hit Me With Your Best Shot

Pat Benatar

Cifra: Principal (violão e guitarra)
Já pensou em usar uma coleção de roupas do Cifra Club? Responda as perguntas abaixo e nos ajude nessa missão! →
tom: E
Notas:

   E5     A5     C#5     B5    D#5
E|---------------------------------|
B|---------------------------------|
G|-9------2------6------4------8---|
D|-9------2------6------4------8---|
A|-7------0------4------2------6---|
E|---------------------------------|

Intro 2x: E5  A5  A5  C#5  C#5  B5  B5
          E5  A5  A5  C#5  C#5  B5  B5  A5  A5  B5  B5

Verso 1:

               E5              D#5   C#5         A5
Well you're a real tough cookie with a long history
B5 (uma palhetada deixa soar e nas outras abafe)
Of breaking little hearts like the one in me
       E5              D#5   C#5      A5
That's o.k. but let's see how you do it
B5 (uma palhetada deixa soar e nas outras abafe)
Put up your dukes let's get down to it

Refrão:

E5                   A5        C#5    B5
Hit me with your best shot
              E5                 A5          C#5   B5  A5  B5
Why don't you hit me with your best shot
E5                  A5       C#5    B5        E5   A5   C#5  B5  A5  B5
Hit me with your best shot         fire away

Verso 2:

    E5              D#5   C#5         A5
You come on with a come on you don't fight fair
B5 (uma palhetada deixa soar e nas outras abafe)
That's o.k. see if i care
  E5        D#5   C#5      A5
Knock me down is all in  vain
B5 (uma palhetada deixa soar e nas outras abafe)
I get right back on my feet again

Refrão:

E5                   A5        C#5    B5
Hit me with your best shot
              E5                 A5          C#5   B5  A5  B5
Why don't you hit me with your best shot
E5                  A5       C#5    B5        E5   A5   C#5  B5  A5  B5
Hit me with your best shot         fire away

Solo:

E|--------------------------------------------------------------------------|
B|-----5-7-5-4---------------5p-4-4-4-4p-2-2-2-0h-2p-0----------------------|
G|-4-6---------6-4-4h-6p-4h-------------------------------------------------|
D|--------------------------------------------------------------------------|
A|--------------------------------------------------------------------------|
E|--------------------------------------------------------------------------|

E|--------------------------------------------------------------------------|
B|-0h-2p-0h-2p-0h-2p-0h-2p-0h-2--2h-4p-2h-4p-2h-4p-2h-4p-2h-4---------------|
G|--------------------------------------------------------------------------|
D|--------------------------------------------------------------------------|
A|--------------------------------------------------------------------------|
E|--------------------------------------------------------------------------|

E|-------------------------------------------------------9/2----------------|
B|-4h-5p-4h-5p-4h-5p-4h-5p-4h-5--5h-7p-5h-7p-5h-7p-5h-7---------------------|
G|--------------------------------------------------------------------------|
D|--------------------------------------------------------------------------|
A|--------------------------------------------------------------------------|
E|--------------------------------------------------------------------------|

E|-0h-2--0h-2--0h-2--2--0h-2p-0---0h-2--0h-2--0h-2--2--0h-2p-0--------------|
B|--------------------------------------------------------------------------|
G|--------------------------------------------------------------------------|
D|--------------------------------------------------------------------------|
A|--------------------------------------------------------------------------|
E|--------------------------------------------------------------------------|

E|--7--6--4--4/1-------------------14----14----14----14----14----14---------|
B|----------------2(bend)-2-----------12----12----12----12----12----12------|
G|--------------------------4-----------------------------------------------|
D|--------------------------------------------------------------------------|
A|--------------------------------------------------------------------------|
E|--------------------------------------------------------------------------|

E|--------------------------------------------------------------------------|
B|-12-----------------------------------------------------------------------|
G|----11-----------------------------------------------5(bend)---4----------|
D|-------------------14--------14--------14--14-14--------------------------|
A|-------------10/12-----10/12-----10/12-----12-12--2-----------------------|
E|--------------------------------------------------0-----------------------|

E|--------------------------------------------------------------------------|
B|--------------------------------------------------------------------------|
G|--9--9------------------------------8-8-8-8-9-----------------------------|
D|--------9--9----9-9-9-9-11-11-11-11---------------------------------------|
A|-------------------(abafado)----------------------------------------------|
E|--------------------------------------------------------------------------|

Verso 3: (diferente)

E|--------------------------------------------------------------------------|
B|-5------5-4-------2------2------2-----------------------------------------|
G|---4--------4---4---4---------1---4h-6p-4--------4------------------------|
D|-----4--------2-------2-----4----------------4-----4-------1--------------|
A|--------------------------4----------------2---2-----2---4----------------|
E|--------------------------------------------------------------------------|

Well you're a real tough cookie with a long history
Of breaking little hearts like the one in me
Before I put another notch in my lipstick case
You better make sure you put me in my place

Refrão:

E5                   A5        C#5    B5
Hit me with your best shot
E5                 A5          C#5   B5  A5  B5
C'mon, hit me with your best shot
E5                  A5       C#5    B5        E5   A5   C#5  B5  A5  B5
Hit me with your best shot         fire away

E5                   A5        C#5    B5
Hit me with your best shot
              E5                 A5          C#5   B5  A5  B5
Why don't you hit me with your best shot
E5                  A5       C#5    B5        E5   A5   C#5  B5  A5  B5
Hit me with your best shot         fire away

Final:
E5   A5   C#5  B5  A5  B5
E5   A5   C#5  B5  A5  B5
E5
Composição de Eddie Schwartz
Colaboração e revisão:
71.086 exibições
    • ½ Tom
    • A
    • Bb
    • B
    • C
    • Db
    • D
    • Eb
    • E
    • F
    • F#
    • G
    • Ab
  • Adicionar à lista

    0 comentários

    Ver todos os comentários

    Conseguiu tocar?

    21 Tocaram 0 Ainda não

    Grave um vídeo tocando Hit Me With Your Best Shot e nos envie!

    00:00 / 00:00
    Outros vídeos desta música
    Repetir Qualidade Automático
    Outros vídeos desta música
    00:00 / 00:00
    Automático

    Cifra Club Pro

    Aproveite o Cifra Club com benefícios exclusivos e sem anúncios
    Cifra Club Pro
    Aproveite o Cifra Club com benefícios exclusivos e sem anúncios
    OK