Invisible Pedestrian

Bent

Composição de: Nail Tolliday / Simon Mills
E--------7-----7-----8----------5-----5----8---------------|
A----------------------------------------------------------|
D---5--5---5-5---5-6---6---3--3---3-3----6----6------------|
G----------------------------------------------------------|


Play this at(01:05),(01:48),(02:31),(04:24),(05:02)

E----------12--------12----13---------10---10-----13-------|
A----------------------------------------------------------| x4
D---10-10-----10--10----11---11--8--8----8-----11----11----|
G----------------------------------------------------------|

DON'T PLAY ANYTHING AT (03:14)

The easiest bass line in the world
Página 1 / 1

Letras e título
Acordes e artista

resetar configurações
OK