Um Bêbado Doidão

Bernardo Portinho

Composição de: Bernardo Portinho
(intro e 1° parte da musica)

G-----------------1-1--  
D--1-1--1-1-------2-2--
A--2-2-----------------  (4x)
E-----------0-0--------

G-1-0-0-0-----------
D-2------1----------
A---------2---------
E-------------1-----

(pré refrão)
G--------------------
D--------------------
A-------------------- (3x)
E--1-1-1-0-2--2--3-3- 

(refrão)
G-------------------2-2------------------
D----------------------------------------
A--2-2-2----4-4-------------------------- (2x) 
E---------------0--------1-1-1-0-2-2-2--- 

(parte final)
G-----------------1-1--  
D--1-1--1-1-------2-2--
A--2-2-----------------  (3x)
E-----------0-0--------

(pré-refrão)
G-1----------
D-2----------
A------------  (2x)
E---000--1---

(refrão)
G-------------------2-2------------------
D----------------------------------------
A--2-2-2----4-4-------------------------- (2x) 
E---------------0--------1-1-1-0-2-2-2---
Página 1 / 1

Letras e título
Acordes e artista

resetar configurações
OK