Cifra Club

Salut A Toi

Bérurier Noir

Cifra: Principal (violão e guitarra)
Tom: F#
Date: Tue, 17 Oct 1995 21:27:46 +0100 (MET)
From: MORIN Alexandre 

Song name: Salut a toi
Tabbed by: the Viking (*)


Distortion

--------------------|-----------------|--------------------|------------------|
--------------------|-----------------|--------------------|------------------|
s=10-x-x-10-x-x-10-x|--6-x-x-6-x-x-6-x|--10-x-x-10-x-x-10-x|--6-x-x-6-x-x-6-x-|
s=10-x-x-10-x-x-10-x|--6-x-x-6-x-x-6-x|--10-x-x-10-x-x-10-x|--6-x-x-6-x-x-6-x-|
s=-8-x-x--8-x-x--8-x|--4-x-x-4-x-x-4-x|---8-x-x--8-x-x--8-x|--4-x-x-4-x-x-4-x-|
--------------------|-----------------|--------------------|------------------|

-----------------|-----------------|-----------------|------------------|
-----------------|-----------------|-----------------|------------------|
-8-x-x-8-x-x-8-x-|-4-x-x-4-x-x-4-x-|-8-x-x-8-x-x-8-x-|-4-x-x-4-x-x-4-x=s|
-8-x-x-8-x-x-8-x-|-4-x-x-4-x-x-4-x-|-8-x-x-8-x-x-8-x-|-4-x-x-4-x-x-4-x=s|
-6-x-x-6-x-x-6-x-|-2-x-x-2-x-x-2-x-|-6-x-x-6-x-x-6-x-|-2-x-x-2-x-x-2-x=s|
-----------------|-----------------|-----------------|------------------|

Play it again and again

Suggestions are Welcome


----------------------
|   Why 2f50 ???     |
----------------------
exibições 512
Acordes para:
    Composição: Bérurier Noir

    0 comentários

    mostrar mais comentários

    Conseguiu tocar?

    0 tocaram 0 ainda não

    Grave um vídeo tocando Salut A Toi e mande pra gente!

    00:00 / 00:00
    outros vídeos desta música
    repetir qualidade Automático
    Outros vídeos desta música
    00:00 / 00:00
    Automático
    OK