Cifra Club

Por Elise

Bethoven

Cifra: Principal
exibições 20.962
Tom: C
E|-12--11--12--11--12--7--10--8--5------5--7------7--8--0-----------
B|------------------------------------5---------9-------------------
G|----------------------------------5---------9---------------------
D|------------------------------------------------------------------
A|------------------------------------------------------------------
E|------------------------------------------------------------------

E|-12--11--12--11--12--7--10--8--5------5--7--0--8--7--5------------
B|------------------------------------5-----------------------------
G|----------------------------------5-------------------------------
D|------------------------------------------------------------------
A|------------------------------------------------------------------
E|------------------------------------------------------------------
E|-12--11--12--11--12--7--10--8--5------5--7------7--8--0-----------
B|------------------------------------5---------9-------------------
G|----------------------------------5---------9---------------------
D|------------------------------------------------------------------
A|------------------------------------------------------------------
E|------------------------------------------------------------------

E|-12--11--12--11--12--7--10--8--5------5--7--0--8--7--5------------
B|------------------------------------5-----------------------------
G|----------------------------------5-------------------------------
D|------------------------------------------------------------------
A|------------------------------------------------------------------
E|------------------------------------------------------------------
E|-7--8--10--12------13--12--10------12--10--8----0--10--8--7----0--0--12--0--12--12----11
B|----------------------------------------------------------------------------------------
G|---------------12--------------10-------------------------------------------------------
D|----------------------------------------------------------------------------------------
A|----------------------------------------------------------------------------------------
E|----------------------------------------------------------------------------------------

E|-12--11--12--11--12--11--12--11--12--11--12--7--10--8--5------5--7------7--8--0-----------
B|------------------------------------------------------------5---------9-------------------
G|----------------------------------------------------------5---------9---------------------
D|------------------------------------------------------------------------------------------
A|------------------------------------------------------------------------------------------
E|------------------------------------------------------------------------------------------

E|-12--11--12--11--12--7--10--8--5------5--7--0--8--7--5------------
B|------------------------------------5-----------------------------
G|----------------------------------5-------------------------------
D|------------------------------------------------------------------
A|------------------------------------------------------------------
E|------------------------------------------------------------------
E|-7--8--10--12------13--12--10------12--10--8----0--10--8--7----0--0--12--0--12--12----11
B|----------------------------------------------------------------------------------------
G|---------------12--------------10-------------------------------------------------------
D|----------------------------------------------------------------------------------------
A|----------------------------------------------------------------------------------------
E|----------------------------------------------------------------------------------------

E|-12--11--12--11--12--11--12--11--12--11--12--7--10--8--5------5--7------7--8--0-----------
B|------------------------------------------------------------5---------9-------------------
G|----------------------------------------------------------5---------9---------------------
D|------------------------------------------------------------------------------------------
A|------------------------------------------------------------------------------------------
E|------------------------------------------------------------------------------------------

E|-12--11--12--11--12--7--10--8--5------5--7--0--8--7--5------------
B|------------------------------------5-----------------------------
G|----------------------------------5-------------------------------
D|------------------------------------------------------------------
A|------------------------------------------------------------------
E|------------------------------------------------------------------
Acordes para:
    Colaboração e revisão:
    • jailson
    • Felipe Prado
    • David Moreira

    0 comentários

      mostrar mais comentários

      Conseguiu tocar?

      7tocaram0ainda não

      Grave um vídeo tocando Por Elise e mande pra gente!

      00:00 / 00:00
      outros vídeos desta música
      repetirqualidadeautomática
      Outro vídeos desta música
        00:00 / 00:00
        automática
        OK