Cifra Club

Love Is The Only Way

Big Mountain

Cifra: Principal (violão e guitarra)
tom: A
Intro: 

G|----------------|-----------------|-----------------| 
D|----------------|-----------------|-----------------| 
A|-----7-4--------|-----------------|--------9-7------| 
E|--5------5------|-------5-4-------|--7-10-----------| 

Verso:

G|----------------|-----------------|-----------------| 
D|----------------|-----------------|-----------------| 
A|-----7-4--------|-----------------|--------9-7-7-7--| 
E|--5------5------|-------5-4-------|--7-10-----------| 

Variação:

G|----------------|-----------------|-----------------| 
D|----------------|-----------------|-----------------| 
A|-----7-4--------|-----------------|--------9-7-7-7--| 
E|--5------5------|-------5-4-4-4---|--7-10-----------|
Composição de Quino
Colaboração e revisão:
  • Everton Damascena
249 exibições
    • ½ Tom
    • A
    • Bb
    • B
    • C
    • Db
    • D
    • Eb
    • E
    • F
    • F#
    • G
    • Ab
  • Adicionar à lista

    0 comentários

    Ver todos os comentários

    Conseguiu tocar?

    0 Tocaram 0 Ainda não

    Grave um vídeo tocando Love Is The Only Way e nos envie!

    00:00 / 00:00
    Outros vídeos desta música
    Repetir Qualidade Automático
    Outros vídeos desta música
    00:00 / 00:00
    Automático

    Cifra Club Pro

    Aproveite o Cifra Club com benefícios exclusivos e sem anúncios
    Cifra Club Pro
    Aproveite o Cifra Club com benefícios exclusivos e sem anúncios
    OK