Dont Say Goodbye Say Goodnight Solo

Binocular

Composição de: Binocular
tom: F#
 Transcribed by: Allan John G. Amisola
 E-mail add: *

 Naks nman, I've worked for the song's solo only... tinatapos ko pa po ung whole song. 
I'll be over with it and pose it soon.


 Standard Tuning: eBGDAE
                  with distortion

 e------------------------------------------------------|
 B--9/11-13-12h13-11-13-9~-------------------11-13-14---|
 G---------------------------12-8-8/10-12-13------------|
 D------------------------------------------------------|
 A------------------------------------------------------|
 E------------------------------------------------------|

  --11----------11-------------------------------------|
  -----14-13h14----13/14-13-11----11-11/13-------------|
  -----------------------------13----------13----------|
  -----------------------------------------------------|
  -----------------------------------------------------|
  -----------------------------------------------------|

  Legend:
          ~  vibrato
          /  slide
          h  hammer

 Hmmm... pagtyagaan nyo na'to kc solo lng... enewey tama nman ung pagtab ko
Medyo madali po sa kamay. Para 'to kay Clover na crush ko... hehehe!!!
Página 1 / 1

Letras e título
Acordes e artista

resetar configurações
OK