Cifra Club

Chove, Chuva

Biquini Cavadão

Tab de baixo: Principal
Introdução

G|------------\7-----------------------
D|------------------------------------ 
A|------------------------------------
E|------------------------------------
               P
obs:você puxa a corda sol casa 7 dando um slide levemente até a casa 1 ouvindo bem a música vai perceber.

G|------------------------------------
D|------------------------------------ 
A|---55555----------------------------
E|----------3-3-3-3-/-5-5-5-5---------

Versos 
G|------------------------------------
D|------------------------------------ 
A|---55555----------------------------
E|----------3-3-3-3-/-5-5-5-5---------


certas partes do verso rola uns punch com atenção vc irá perceber
G|----------7-7-7---------------------
D|------------------------------------ 
A|---55555----------------------------
E|----------------3-3-3-3-/-5-5-5-5---
            P P P

Refrão 
G|------------------------------------
D|------------------------------------ 
A|---55555----------------------------
E|----------3-3-3-3-/-5-5-5-5---------

ponte
G|---------------------------
D|--------------------------- 
A|---\5----------------------
E|----------\3---\5----------

Final
G|-----------------------
D|-----------------------
A|---5-------------------
E|----------3--5---------
Composição de Jorge Ben
Colaboração e revisão:
  • Glauco Oliveira
3.206 exibições

0 comentários

Ver todos os comentários

Conseguiu tocar?

0 Tocaram 0 Ainda não

Grave um vídeo tocando Chove, Chuva e nos envie!

00:00 / 00:00
Outros vídeos desta música
Repetir Qualidade Automático
Outros vídeos desta música
00:00 / 00:00
Automático

Cifra Club Pro

Aproveite o Cifra Club com benefícios exclusivos e sem anúncios
Cifra Club Pro
Aproveite o Cifra Club com benefícios exclusivos e sem anúncios
OK