Transformers Theme

Black Lab

tom: Bm Afinação: E A D G B E
                 Intro  x3
E|-------------------------------------------| I I---I
B|-------------------------------------------| I I---I
G|-------------------------------------------| I I---I
D|-------------------------------------------| I I---I
A|-6--6-6---7-7-7-7--6-6--6------------------| I I-9-I
E|-4--4-4---5-5-5-5--4-4--4------------------| I I-7-I
                                                /
                                            Play this 
                                           at the end
                                            of the 3rd
                                            time playing
                                            the intro

           Chourus 1  x2
E|------------------------------------------------------| I
B|------------------------------------------------------| I
G|------------------------------------------------------| I
D|------------------------------------------------------| I
A|-6-6--7-7-7-7--6-6--6-6--7-7-7-7--4-4--5-5-5-5--9-9-7-| I
E|-4-4--5-5-5-5--4-4--4-4--5-5-5-5--2-2--3-3-3-3--7-7-5-| I
PM......................................................
                   
E|------------------------------| I
B|------------------------------| I
G|------------------------------| I  Let last note ring
D|------------------------------| I  for a little bit
A|-9--5-5--7-7------------------| I
E|-7--3-3--5-5------------------| I

                       Chourus 2
E|------------------------------------------------------| I
B|------------------------------------------------------| I
G|------------------------------------------------------| I
I-9-9-9-9-9-9-9-9-9-9-9-9-9-10-10-10-10-9-9-9-9-9-9-10-I
E|-7-7-7-7-7-7-7-7-7-7-7-7-7-8--8--8--8--7-7-7-7-7-7-8--| I
B|------------------------------------------------------| I

Repeat Chourus 1
Repeat chourus 2

                        Fill 1
E|-----------------------------------| I
B|-----------------------------------| I
G|-----------------------------------| I
D|-----------------------------------| I
A|--9--7--5--4--9--7--5--4-----------| I
E|--7--5--3--2--7--5--3--2-----------| I
Página 1 / 1

Letras e título
Acordes e artista

resetar configurações
OK