Cifra Club

Aprenda

Angel of Mercy

Black Label Society

Cifra: Principal (violão e guitarra)
tom: C
Intro: F/C Am G F/C
    F/C                       Am                       G
E|-0----0--0--0-0--0----0-0-0----0--3--3-3--3----3-3-3--3--3--3-3--3----3-3--| 
B|-1----1--1--1-1--1----1-1-1----1--1--1-1--0h1--1-1-3--3--3--3-3--3----3-3--|
G|-0h2--2--2--2-2--0h2--2-2-0h2--2--2--2-2--2----2-2-0--0--0--0-0--0----0-0--|
D|-3----3--3--3-3--3----3-3-0h2--2--2--2-2--2----2-2-0--0--0--0-0--0----0-0--|
A|-3----3--3--3-3--3----3-3-0----0--0--0-0--0----0-0-2--2--2--2-2--0h2--2-2--|
E|---------------------------------------------------3--3--3--3-3--3----3-3--|

F/C      Am
    I woke alone today

G                         F/C
  For all the birds have flown

F/C           Am
    Inside this empty house

G                           F/C
  Which no longer feels like home

C       Am
    No angel of mercy

F/C          C
    Is gonna hear my call (lord no)

C       Am
    No angel of mercy

F/C                   Dm
  To dry the tears that shall not fall

F/C     Am
  I woke alone today

G                            F/C
  Admidst life's killing fields of war

F/C     Am
  Door of memories

G              F/C
  Closed forevermore

C     Am
  No angel of mercy 

F/C        C
  Is gonna hear my call (lord no) 

C     Am
  No angel of mercy 

F/C                   Dm
  To dry the tears that shall not fall 
  
     Am                          Dm
E|--------------------------------1---0-----------|
B|---1---0h1------1------1------3--3---3--3---3---|
G|----------2--------0h2---2-----2--2---2--2-2-2--| 
D|-----2-----2-3---3---------0-------0---0--0---0-| 4X
A|-0----------------------------------------------|
E|------------------------------------------------|


Am F/C D9 Am F/C D9 Am F/C D9 Am F/C D9

Solo: Am G F/C

C      Am
  No angel of mercy

F/C        C
  Is gonna hear my call (lord no)

C      Am
  No angel of mercy

F/C                  C
  To dry the tears that shall not fall

C      Am
  No angel of mercy

F/C        C
  Is gonna hear my call (lord no)

C      Am
  No angel of mercy

F/C                  Dm
  To dry the tears that shall not fall
Composição de Zakk Wylde
Colaboração e revisão:
  • Crazy K
  • Andel Dias
  • Taynan Medeiros
29.647 exibições
    • ½ Tom
    • A
    • Bb
    • B
    • C
    • Db
    • D
    • Eb
    • E
    • F
    • F#
    • G
    • Ab
  • Adicionar à lista

    0 comentários

    Ver todos os comentários

    Conseguiu tocar?

    22 Tocaram 2 Ainda não

    Grave um vídeo tocando Angel of Mercy e nos envie!

    00:00 / 00:00
    outros vídeos desta música
    repetir qualidade Automático
    Outros vídeos desta música
    00:00 / 00:00
    Automático

    Cifra Club Pro

    Aproveite o Cifra Club com benefícios exclusivos e sem anúncios
    Cifra Club Pro
    Aproveite o Cifra Club com benefícios exclusivos e sem anúncios
    OK