Blackened Waters

Black Label Society

Composição de: Zakk Wylde
tom: G
Intro/verse:

e|--------------------------------------------------------------------------|
B|---------------------2----------------------------------------------------|
G|-------0-----------2---2------------0-------------0-----------------------|
D|-----2---2-------2-------2--------0---0---------0---0---------------------|
A|---2-------2---0----------------2-------2-----0-------0-------------------|
E|-0----------------------------3-------------2-----------------------------|

intro guitar 2:

e|--------------------------------------------------------------------------|
B|--------------------------------------------------------------------------|
G|--9-11-12--14--16--17--16--14--11-12--11-9--------------------------------|
D|--------------------------------------------------------------------------|
A|--7-9--10--12--14--15--14--12--9--10--9--7--------------------------------|
E|--------------------------------------------------------------------------|

Chourse:

e|--------------------------------------------------------------------------|
B|--------------------------------------------------------------------------|
G|--------------------------------------------------------------------------|
D|-5------------------------------------------------------------------------|
A|-3--------2--5h7-7-7-5h7-7-7----------------------------------------------|
E|---3~(PH)-0-------------------5-7-5-3-0-----------------------------------|

And here i stand
i find myself alone again
the miles iv'e walked
loss of hope and loss of friends
yet i keep on runnin'
and i won't look back
the waters rise
you never know just where they're at

the waters turn
yeah,yeah
the hardships we endure
you aint the only son
or forgotton daughter
we all drown in blackend waters

the sun has set
the endless stream where nothing lastes
forever damned
today to morrow and all the past
yet i keep on runnin'
and i wont look back
the waters rise
you never know just where they're at
Página 1 / 1

Letras e título
Acordes e artista

resetar configurações
OK