Cifra Club

Aprenda

Bleed For Me

Black Label Society

Cifra: Principal (violão e guitarra)
tom: C
Drop C

|----------------------------------------------------------------------|
|----------------------------------------------------------------------|
|----------------------------------------------------------------------|
|----------------------------------------------------------------------|
|-----------------------------------------------------3-5-3---3--------|
|-3-0-0-0-0-0-0-0---3-0-0-0-0-0-0-0--3-0-0-0-0-0-0-0--------6---6-5-3--|

|--------------------------------------------------------------|
|--------------------------------------------------------------|
|--------------------------------------------------------------|
|------------------------------------------3-------------------|
|-3-00000---3-00000---3-00000---3-00000----3-------------------|
|-3-00000---3-00000---3-00000---3-00000----3-------------------|

|---------------------------------------------------------------|
|---------------------------------------------------------------|
|---------------------------------------------------------------|
|-3-0-0--5-0-0--3-0-0--6-0-0-----5/6-5/6------------------------|
|-3-0-0--5-0-0--3-0-0--6-0-0------------------------------------|
|-3-0-0--5-0-0--3-0-0--6-0-0-----5/6-5/6------------------------|

Chorus

Guitar 1
|--------------------------------|-------------------------------|
|--------------------------------|-------------------------------|
|-------12---10----9/10---9\5----|-----12--10--9/10--9/5--3------|
|--7-----------------------------|-7-----------------------------|
|--5---------------------------0-|-5-----------------------------|
|--0----10---8-----7/8----7\3--0-|-0---10--8---7/8---7/3--1------|

Guitar 2
|-----------------------------|-------------------------------|
|-----------------------------|-------------------------------|
|--7--5-3---------------------|--7--5-3-----------------------|
|--7--5-3---2-3-2-------------|--7--5-3---3-2-3-2-------------|
|--5--3-1---------3-1---------|--5--3-1------------3-1--------|
|--0--------------------------|--0----------------------------|

Solo - 5x
|--------------------------------------------------------------|
|-----------------------10-12-13-10-12-13----------------------|
|10-12-13-10-12-13---------------------------------------------|
|--------------------------------------------------------------|
|--------------------------------------------------------------|
|--------------------------------------------------------------|

  6x                          
|-----------------------------------------------------------10--|
|---------------------10-12-13-10---------13^--13^--13^---------|
|--10-12-13-10-12-13--------------10---10-----------------------|
|---------------------------------------------------------------|
|---------------------------------------------------------------|
|---------------------------------------------------------------|

  3x
|--15-13-10-15-13-10--------------------------------------------|
|---------------------13-12-10-13-12-10-------------------------|
|----------------------------------------13-12-10-13-12-10------|
|-----------------------------------------------------------12~~|
|---------------------------------------------------------------|
|---------------------------------------------------------------|
       
|-------------------------------10----10-13-10-15----13----12----10--|
|---------------12^--12--10--10----10-------------10----10----10-----|
|-12^---10~--10------------------------------------------------------|
|--------------------------------------------------------------------|
|--------------------------------------------------------------------|
|--------------------------------------------------------------------|

|---------------------------------------------------------------|
|---------------------------------------------------------------|
|--15^--12-10---17^--12-10--15^--12-10-12^----------------------
|---------------------------------------------------------------|
|---------------------------------------------------------------|
|---------------------------------------------------------------|
        
|---------------------------------------------------------------|
|---------------------------------------------------------------|
|------15h12p15h12p15h12p15h12p15h12p15h12p15-------------------|
|---------------------------------------------------------------|
|---------------------------------------------------------------|
|---------------------------------------------------------------|

|---------------------------------------------------------------|
|---------------------------------------------------------------|
|-12-10----10-10-10-12^--10~~~~---------------------------------|
|-------12------------------------------------------------------|
|---------------------------------------------------------------|
|---------------------------------------------------------------|
Composição de Zakk Wylde
Colaboração e revisão:
  • Élison Duarte
9.841 exibições
    • ½ Tom
    • A
    • Bb
    • B
    • C
    • Db
    • D
    • Eb
    • E
    • F
    • F#
    • G
    • Ab
  • Adicionar à lista

    0 comentários

    Ver todos os comentários

    Conseguiu tocar?

    1 Tocaram 0 Ainda não

    Grave um vídeo tocando Bleed For Me e nos envie!

    00:00 / 00:00
    outros vídeos desta música
    repetir qualidade Automático
    Outros vídeos desta música
    00:00 / 00:00
    Automático

    Cifra Club Pro

    Aproveite o Cifra Club com benefícios exclusivos e sem anúncios
    Cifra Club Pro
    Aproveite o Cifra Club com benefícios exclusivos e sem anúncios
    OK