Cifra Club

Aprenda

Bridge to cross

Black Label Society

Cifra: Principal (violão e guitarra)
tom: E
(afinação 1/2 tom abaixo)

(intro) Em A

E|-------------0---------------------|
B|-------3-------3---3----2----------|  (4x)
G|---------0-------0---0--2----------|
D|-----4-----4------------2----------|
A|---2--------------------0----------|
E|-0---------------------------------|

E|-----------------------------------------------|
B|-----------------------------------------------|
G|-----0--------------0------------------0-------|
D|-------2---2----------0---0--------4-------4---|
A|---2-----2--------2-----2--------5---5---5---5-|
E|-0--------------3--------------7---------------|

E|------------------------------------------------|
B|------------------------------------------------|
G|---------0------------------0--------------2----|
D|-----2-------2----------2------2-------1-----1--|
A|---2---2---2---2-----3----3------3---2---2-----2|
E|-0----------------------------------------------|

E|-----------------------|
B|-----------------------| (2x)
G|-------0---------------|
D|-----2-----------------|
A|---2-------------------|
E|-0-------2~-0----3-2-0-|

Hands on the wheel
All is straight ahead
Left behind
Second guessing all that I once said
C                   Bm
I once said, ohhh...
C                    Bm
I once said, ohhh...
Em              D               Bm      Em
My spirit is bent and there's blood on my hands
C                       Bm                      Em
The more I'm down, the less I understand
Once so found, now so lost
I ask no questions,
There's just one more bridge to cross.
(volta no dedilhado)
Always black and white
Would change it if I could
I'll take what I'm handed
Whether it's damned or if it's good
C               Bm
If it's good, ohh...
C               Bm
If it's good, ohh...

My spirit is bent and there's blood on my hands
The more I'm down, the less I understand
Once so found, now so lost
I ask no questions,
There's just one more bridge to cross.

(riff antes do solo)

(solo)
E|---------------------------------------------------------------------------|
B|---10~---9~--7~--9~--6~----10~---9~--7~--9~--6~----10~--9~--7~--9~--6~-----|
G|---------------------------------------------------------------------------|

(dedilhado)
My spirit is bent and there's blood on my hands
The more I'm down, the less I understand
Once so found, now so lost
I ask no questions,
there's just one more bridge to cross.
Composição de Zakk Wylde
Colaboração e revisão:
12.443 exibições
    • ½ Tom
    • A
    • Bb
    • B
    • C
    • Db
    • D
    • Eb
    • E
    • F
    • F#
    • G
    • Ab
  • Adicionar à lista

    0 comentários

    Ver todos os comentários

    Conseguiu tocar?

    2 Tocaram 0 Ainda não

    Grave um vídeo tocando Bridge to cross e nos envie!

    00:00 / 00:00
    outros vídeos desta música
    repetir qualidade Automático
    Outros vídeos desta música
    00:00 / 00:00
    Automático

    Cifra Club Pro

    Aproveite o Cifra Club com benefícios exclusivos e sem anúncios
    Cifra Club Pro
    Aproveite o Cifra Club com benefícios exclusivos e sem anúncios
    OK