Cifra Club

Aprenda

House Of Doom

Black Label Society

Cifra: Principal (violão e guitarra)
Já pensou em usar uma coleção de roupas do Cifra Club? Responda as perguntas abaixo e nos ajude nessa missão! →
tom: Db
Eb Ab Db Gb Bb Eb 
 
 
 
Intro: 
Guitar 1: 
   Bb 
|--0----------0-----------0---------0--------------------------| 
|--0----------0-----------0---------0--------------------------| 
|--4----------4-----------4---------4--------------------------| 
|--4----------4-----------4---------4--------------------------| 
|--2----------2-----------2---------2--------------------------| 
|--------------------------------------------------------------| 
 
 
Guitar 2: 
|-----5----------5-----------5----------5----------------------| 
|-----0----------0-----------0----------0----------------------| 
|-------4----------4-----------4----------4--------------------| 
|--------------------------------------------------------------| 
|--------------------------------------------------------------| 
|--------------------------------------------------------------| 
 
 
Verse: Listen for the Rhythm, only the chords are indicated. 
Take all that you 
  Bb 
|--------------------------------------------------------------| 
|--------------------------------------------------------------| 
|--4-----------------------------------------------------------| 
|--4----X--X--X--X--X------------------------------------------| 
|--2-----------------------------------------------------------| 
|--------------------------------------------------------------| 
 
 
 Can... 
  Ab 
|--------------------------------------------------------------| 
|--2-----------------------------------------------------------| 
|--2-----------------------------------------------------------| 
|--2---X--X--X--X--X-------------------------------------------| 
|--0-----------------------------------------------------------| 
|--------------------------------------------------------------| 
 
 
Take it all... 
  Eb 
|--------------------------------------------------------------| 
|--------------------------------------------------------------| 
|--0-----------------------------------------------------------| 
|--2---X--X--X--X--X-------------------------------------------| 
|--2-----------------------------------------------------------| 
|--0-----------------------------------------------------------| 
 
 
I know you'll do it again... 
 Bb 
|--------------------------------------------------------------| 
|--------------------------------------------------------------| 
|--4-----------------------------------------------------------| 
|--4---X--X--X--X--X-------------------------------------------| 
|--2-----------------------------------------------------------| 
|--------------------------------------------------------------| 
 
 
 
Chorus: 2x 
 Oh another truth... 
|--------------------------------------------------------------| 
|--------------------------------------------------------------| 
|--------2-----------------------------------------------------| 
|--9-----2-----2-----------------------------------------------| 
|--7-----0-----2-----------------------------------------------| 
|--0-----------0----------/17~----5ph--------------------------| 
 
 
 Oh... once you step inside... 
|--------------------------------------------------------------| 
|--------------------------------------------------------------| 
|--------4-----------------------------------------------------| 
|--4-----4-----------------------------------------------------| 
|--4-----2-----------------------------------------------------| 
|--2--------------------/17~ph---------------------------------| 
 
 
 
 
Solo by: DaveUK 
|---------------------------------------------------------| 
|---------------------------------------------------------| 
|-----------------------1-2-1-2-1-2-1-2-4-5-4-5-4-5-4-5---| 
|-2-3-2-3-2-3-2-3-----------------------------------------| 
|---------------------------------------------------------| 
|---------------------------------------------------------| 
 
 
 
|----------------------------------------------------------------------| 
|--------------------------9-10-9-10-9-10-9-10-10-12-10-12-10-12-10-12-| 
|-8-9-8-9-8-9-8-9------------------------------------------------------| 
|----------------------------------------------------------------------| 
|----------------------------------------------------------------------| 
|----------------------------------------------------------------------| 
 
 
 
|---------------------------------------------------| 
|-12-13-12-13-12-13-12-13-13-15-13-15-13-15-13-15---| 
|---------------------------------------------------| 
|---------------------------------------------------| 
|---------------------------------------------------| 
|---------------------------------------------------| 
 
 
 
|------12-----------------------------12--------------------------| 
|-15^^---------15-12---------------------15-12--------------------| 
|--------------------------------14^-------------------14^--------| 
|-----------------------------------------------------------------| 
|-----------------------------------------------------------------| 
|-----------------------------------------------------------------| 
 
 
|-12-------------------------------------------------------| 
|-------15-12---------12-15-----------12-------------------| 
|----------------14^------------14^---------14^-12---------| 
|----------------------------------------------------------| 
|----------------------------------------------------------| 
|----------------------------------------------------------| 
 
 
 
|------12-15-17-15-12----------12-15-17-15-12------------| 
|-15-----------------------15-----------------------15---| 
|--------------------------------------------------------| 
|--------------------------------------------------------| 
|--------------------------------------------------------| 
|--------------------------------------------------------| 
 
 
|------12-15-17-15-12----------12-15-17-15-12------------| 
|-15-----------------------15--------------------15/^^---| 
|--------------------------------------------------------| 
|--------------------------------------------------------| 
|--------------------------------------------------------| 
|--------------------------------------------------------| 
 
 
|---------------------------------------------------------------| 
|------12-15-17-15-12----------------------------12-15-17-15-12-| 
|-15-----------------------15-12---------12-15------------------| 
|-------------------------------------14------------------------| 
|---------------------------------------------------------------| 
|---------------------------------------------------------------| 
 
|----------------------------------------------------------------------| 
|-------------12-15-17-15-12----------------------------12-15-17-15-12-| 
|-15-12-15-----------------------15-12---------12-15-------------------| 
|------------------------------------------14--------------------------| 
|----------------------------------------------------------------------| 
|----------------------------------------------------------------------| 
 
 
|----------------------------------------------------------------------| 
|-------------12-15-17-15-12----------------------------12-15-17-15-12-| 
|-15-12-15-----------------------15-12---------12-15-------------------| 
|------------------------------------------14--------------------------| 
|----------------------------------------------------------------------| 
|----------------------------------------------------------------------| 
 
 
|----------------------------------------------------------------------| 
|-------------12-15-17-15-12----------------------------12-15-17-15-12-| 
|-15-12-15-----------------------15-12---------12-15-------------------| 
|------------------------------------------14--------------------------| 
|----------------------------------------------------------------------| 
|----------------------------------------------------------------------| 
 
 
|--------------------------------------------------------------12-15-17-| 
|---------------------12-15-17-15-12------12-15-17-15-12-15-------------| 
|-15-14-12-14-15----------------------15--------------------------------| 
|-----------------------------------------------------------------------| 
|-----------------------------------------------------------------------| 
|-----------------------------------------------------------------------| 
 
 
|-15-12-----------------------12-15-17-15-12----------------------------------| 
|----------15-12------12-15--------------------15-12----------------15^^^-----| 
|------------------14-----------------------------------14-12-14^^---------2^^| 
|-----------------------------------------------------------------------------| 
|-----------------------------------------------------------------------------| 
|-----------------------------------------------------------------------------|
Composição de Zakk Wylde
Colaboração e revisão:
  • André Coutinho
4.638 exibições
    • ½ Tom
    • A
    • Bb
    • B
    • C
    • Db
    • D
    • Eb
    • E
    • F
    • F#
    • G
    • Ab
  • Adicionar à lista

    0 comentários

    Ver todos os comentários

    Conseguiu tocar?

    0 Tocaram 0 Ainda não

    Grave um vídeo tocando House Of Doom e nos envie!

    00:00 / 00:00
    outros vídeos desta música
    repetir qualidade Automático
    Outros vídeos desta música
    00:00 / 00:00
    Automático

    Cifra Club Pro

    Aproveite o Cifra Club com benefícios exclusivos e sem anúncios
    Cifra Club Pro
    Aproveite o Cifra Club com benefícios exclusivos e sem anúncios
    OK