Cifra Club

Aprenda

In This River

Black Label Society

Cifra: Principal (violão e guitarra)
tom: G
Intro:

E|-----------------------------------------------|
B|-----------------------------------------------|
G|-----9~~~~~~~~~~-----21~~~~~~~~~---------------|
D|-----------------------------------------------|
A|-----------------------------------------------|
E|-----------------------------------------------|

E|-----------------------------------------------|
B|-----------------------------------------------|
G|--16--17--16--14--16--17--16--14~~-------------|
D|-----------------------------------------------|
A|-----------------------------------------------|
E|-----------------------------------------------|

Em              C
I've been around this world
G         D
Yet I see no end
Em         C               G          D
All shall fade to black again and again
Em                  C
This storm that's broken me
     G      D
My only friend

Refrão:

 G       C          Em           C
In this river all shall fade to black
G       C          Em           C
In this river ain't no comin' back
  G                      C         Em
In this river all shall fade to black

Intro:

E|-----------------------------------------------|
B|-----------------------------------------------|
G|--16--17--16--14--16--17--16--14--16~~~~-------|
D|-----------------------------------------------|
A|-----------------------------------------------|
E|-----------------------------------------------|

Ain't no coming back
Em            C
Withdrawn I step away
          G       D
Just to find myself
Em             C
The door is closed again
     G        D
The only one left
Em                C
This storm that's broken me
    G      D
My only friend

Refrão: 2x
 G       C          Em           C
In this river all shall fade to black
G       C          Em           C
In this river ain't no comin' back
  G                      C         Em
In this river all shall fade to black

Solo:

1ºparte

E|------------------------------------------------------------------------|
B|------------------------------------------------------------------------|
G|---2b3r2b3r2-0---4-------5-------4-----2------4-----5-----4------2b4--2\|
D|------------------------------------------------------------------------|
A|------------------------------------------------------------------------|
E|------------------------------------------------------------------------|

2ºparte

E|-------------12h15p----12h17p----12h15p---12h17p---12h15p---12h17p------|
B|-----15b-----------15--------15--------15--------15-------15-------15---|
G|------------------------------------------------------------------------|
D|------------------------------------------------------------------------|
A|------------------------------------------------------------------------|
E|------------------------------------------------------------------------|

3ºparte

E|--12h15h14h14h14--------12h15-------------------------------------------|
B|-----------------15b----------15p12-15p12-15p12-15p12-----15-15b--15----|
G|------------------------------------------------------14b---------14b-14|
D|------------------------------------------------------------------------|
A|------------------------------------------------------------------------|
E|------------------------------------------------------------------------|

Refrão 4x:

 G       C          Em           C
In this river all shall fade to black
G       C          Em           C
In this river ain't no comin' back
  G                      C         Em
In this river all shall fade to black

se vc quiser pode opitar por escolher essas frases,quando ele começa a cantar o refrão a guitarra de fundo faz

Refrão:

 G       C          Em           C
In this river all shall fade to black

E|-----------------------------------------------|
B|-----------------------------------------------|
G|-----7---5-4~~---------------------------------|
D|-----------------------------------------------|
A|-----------------------------------------------|
E|-----------------------------------------------|

e quando ele começa a cantar a segunda parte da musica, depois de refrão ele faz:

Ain't no coming back
Em            C
Withdrawn I step away
          G       D
Just to find myself

E|-----------------------------------------------|
B|-----------------------------------------------|
G|-----18r~~-------------------------------------|
D|-----------------------------------------------|
A|-----------------------------------------------|
E|-----------------------------------------------|
Composição de Zakk Wylde
Colaboração e revisão:
59.975 exibições
    • ½ Tom
    • A
    • Bb
    • B
    • C
    • Db
    • D
    • Eb
    • E
    • F
    • F#
    • G
    • Ab
  • Adicionar à lista

    0 comentários

    Ver todos os comentários

    Conseguiu tocar?

    21 Tocaram 1 Ainda não

    Grave um vídeo tocando In This River e nos envie!

    00:00 / 00:00
    outros vídeos desta música
    repetir qualidade Automático
    Outros vídeos desta música
    00:00 / 00:00
    Automático

    Cifra Club Pro

    Aproveite o Cifra Club com benefícios exclusivos e sem anúncios
    Cifra Club Pro
    Aproveite o Cifra Club com benefícios exclusivos e sem anúncios
    OK