Cifra Club

Aprenda

Queen Of Sorrow

Black Label Society

Tab de baixo: Principal

Album: Hangover Music Vol: 6
Bassist: John Deservio {JD}
Tuning: Standard
Tabbed by: Brandon B.

Key:
    /= Slide
    H= Hammer-on
    P= Pull-off
    S= Slap
    P= Pop
    T= Tap

         Note: This Bassline in the key of f#, and uses the ionian scale,
      I reccomend learning this scale becuase not only is it fun lol, but
      John does a lot of improv and fills that if you want to master, you
      should probably learn the scale to have a better understanding of
      what he's doing and possibly have fun with it and make up your own
      fills. I hope this is helpful :}

Intro: acoustic guitar/rest

Main Part:

G-----------------------------|
D-----------------------------|
A--------0--------2-----------|
E-2--4-------0----------------|


Verse:

G---------------------------------------------|
D---------------------------------------------|      Note: Verse bassline
A------------0-0-0----------2-2-2-2-----------|     is also played behind
E-2-2-2-2-24-------4-0-0-0--------------------|     guitar solo and then
                                                   goes into final chorus.

Fill at the end of first verse:

G-----------------------------|
D-----------------------------|
A--5-4-5---5-4-2-0------------|
E-----------------------------|


Chorus:

G-------2-----------------------------------------------------------------|
D-----------------2------------------------4------------------------7-----|
A-0-0-0---0-0--/4---4----------------------------------5-5-5-4-5-457------|
E----------------------0-0-0-0-0-0-1-2-2-2---2-2-2-22-2-------------------|


Bridge:

G---------------------------|
D---------------------------|
A------0--3-2-0-------------|  X8
E-2-22----------------------|


Order:

 Main Part X2
 Verse X4
 Chorus
 Main part X2
 Verse X4
 Chorus
 Bridge X8
 Verse plays behind guitar solo
 Chorus
 Main part
 End on F#

    Enjoy!!! :} :) :) :] :-)
Composição de Zakk Wylde
1.653 exibições

0 comentários

Ver todos os comentários

Conseguiu tocar?

0 Tocaram 0 Ainda não

Grave um vídeo tocando Queen Of Sorrow e nos envie!

00:00 / 00:00
outros vídeos desta música
repetir qualidade Automático
Outros vídeos desta música
00:00 / 00:00
Automático

Cifra Club Pro

Aproveite o Cifra Club com benefícios exclusivos e sem anúncios
Cifra Club Pro
Aproveite o Cifra Club com benefícios exclusivos e sem anúncios
OK