Cifra Club

Aprenda

Suicide Messiah

Black Label Society

Cifra: Principal (violão e guitarra)
tom: C
Drop C - C G C F A D  
 
 
 
Intro: 
d|--------------------------------------------------------------| 
A|--------------------------------------------------------------| 
F|--------------------------------------------------------------| 
C|-----------------------------5-3-0---5-3-0--------------------| 
G|--3h5-------5-------5-----------------------3h5------5-----3-5| 
C|--0----0-0--0--0--0-0---0-0-----------------0----0-0-0--0--3-5| 
 
 
 
 
  Verse: 
d|--------------------------------------------------------------| 
A|--------------------------------------------------------------| 
F|----------------------------------------repeat----------------| 
C|--------------------------------------------------------------| 
G|--3-0-0-0--3h5-0-0-0--0-3-0-0--3h5-0-0-0----------------------| 
C|--3-0-0-0--0---0-0-0--0-3-0-0--0---0-0-0----------------------| 
 
 
 
  Bow down you chose your maker... 
d|--------------------------------------------------------------| 
A|--------------------------------------------------------------| 
F|--------------------------------------------------------------| 
C|--------------------------------------------------------------| 
G|-3------5-----0-0-0-0-3--0-0-0-3-5--0-0-0-0-3-0-0-0-3-5-------| 
D|-3------5-----0-0-0-0-3--0-0-0-3-5--0-0-0-0-3-0-0-0-3-5-------| 
 
 
 
  The electric burns that fuel the fire... 
d|--------------------|-----------------------------------------| 
A|--------------------|--------repeat 4x------------------------| 
F|------------|-------|-----------------------------------------| 
C|------------|-pause-|--0--------------------------------------| 
G|-3------5\--|-------|--0-------5555-5555-5555-5555------------| 
D|-3------5\----------|--0-------5555-5555-5555-5555------------|
Composição de Zakk Wylde
Colaboração e revisão:
  • André Coutinho
12.561 exibições
    • ½ Tom
    • A
    • Bb
    • B
    • C
    • Db
    • D
    • Eb
    • E
    • F
    • F#
    • G
    • Ab
  • Adicionar à lista

    0 comentários

    Ver todos os comentários

    Conseguiu tocar?

    1 Tocaram 0 Ainda não

    Grave um vídeo tocando Suicide Messiah e nos envie!

    00:00 / 00:00
    outros vídeos desta música
    repetir qualidade Automático
    Outros vídeos desta música
    00:00 / 00:00
    Automático

    Cifra Club Pro

    Aproveite o Cifra Club com benefícios exclusivos e sem anúncios
    Cifra Club Pro
    Aproveite o Cifra Club com benefícios exclusivos e sem anúncios
    OK